Oops, an error
Loading. Please wait.

Your Call Tab

version 1
version 1
1,490,365 views 666 this week
63 commentsread comments
1 2 3 4 5
excellent!
x 215
add to favorites
launch autoscroll
font size
0
reset
how to read this tab
guitar tuner
Autoscroll
slow
fast
+/-
esc
set tempo
stop
Help us to improve Ultimate-Guitar.com Take our survey!
×
Author
---------------------------------------------
     "Your Call" - Secondhand Serenade

http://www.purevolume.com/secondhandserenade
---------------------------------------------
Tabbed by: Justin RiRaY
CHECK OUT MY YOUTUBE http://www.youtube.com/justinriray
Email: Pakman7JR@hotmail.com 

Tuning: eBGDAE
*The new version is tuned half step down, but it is the same chord lay out.


[INTRO] x2
 
e|------------------------------------------|
B|------------------------------------------|
G|------0--------0--------0--------0--------|
D|----0---0----4---0----5---5----5---0------|
A|--3--------5--------7--------7------------|
E|------------------------------------------|


[VERSE] x6
 
e|------------------------------------------|
B|------------------------------------------|
G|------0--------0--------0--------0--------|
D|----0---0----4---0----5---5----5---0------|
A|--3--------5--------7--------7------------|
E|------------------------------------------|


[CHORUS] x2

e|------------------------------------------|
B|------------------------------------------|
G|------0--------0--------0--------0--------|
D|----0---0----0---0----4---4----4---4------|
A|--------------------5--------5------------|
E|--3--------3------------------------------|
 
e|------------------------------------------|
B|------------------------------------------|
G|------0--------0--------0--------0--------|
D|----5---5----5---5----0---0----0---0------|
A|--7--------7--------3--------3------------|
E|------------------------------------------|
 
e|------------------------------------------|
B|------------------------------------------|
G|------0--------0--------0--------0--------|
D|----0---0----0---0----4---4----4---4------|
A|--------------------5--------5------------|
E|--3--------3------------------------------|
 
e|------------------------------------------|
B|------------------------------------------|
G|-----0--------0------0----0----0----0-(0~)|
D|---5---5----5---5---0-0--0-0--0-0--0-0(0~)|
A|-7--------7--------3----3----3----3---(3~)|
E|------------------------------------------|
                                     


[POST-CHORUS]
 
e|-------------|   |----------------------|
B|-------------|   |----------------------|
G|-------------|   |---0----0----0----0---|
D|-------------|X4 |--0-0--4-0--5-5--5-0--|X2
A|--3--5-------|   |-3----5---------------|
E|--------0--0-|   |-----------0----0-----|


[CHORUS] x2

e|------------------------------------------|
B|------------------------------------------|
G|------0--------0--------0--------0--------|
D|----0---0----0---0----4---4----4---4------|
A|--------------------5--------5------------|
E|--3--------3------------------------------|
 
e|------------------------------------------|
B|------------------------------------------|
G|------0--------0--------0--------0--------|
D|----5---5----5---5----0---0----0---0------|
A|--7--------7--------3--------3------------|
E|------------------------------------------|
 
e|------------------------------------------|
B|------------------------------------------|
G|------0--------0--------0--------0--------|
D|----0---0----0---0----4---4----4---4------|
A|--------------------5--------5------------|
E|--3--------3------------------------------|
 
e|------------------------------------------|
B|------------------------------------------|
G|-----0--------0------0----0----0----0-(0~)|
D|---5---5----5---5---0-0--0-0--0-0--0-0(0~)|
A|-7--------7--------3----3----3----3---(3~)|
E|------------------------------------------|
                                     

[BRIDGE] x4
 
e|------------------------------------------|
B|------------------------------------------|
G|------0--------0--------0--------0--------|
D|----5---5----4---4----0---0----4---4------|
A|--7--------5--------3--------5------------|
E|------------------------------------------|

little dingy thing   e|-10-10-10-8-7--7--8--|
     

[CHORUS] x4

e|------------------------------------------|
B|------------------------------------------|
G|------0--------0--------0--------0--------|
D|----0---0----0---0----4---4----4---4------|
A|--------------------5--------5------------|
E|--3--------3------------------------------|
 
e|------------------------------------------|
B|------------------------------------------|
G|------0--------0--------0--------0--------|
D|----5---5----5---5----0---0----0---0------|
A|--7--------7--------3--------3------------|
E|------------------------------------------|
 
e|------------------------------------------|
B|------------------------------------------|
G|------0--------0--------0--------0--------|
D|----0---0----0---0----4---4----4---4------|
A|--------------------5--------5------------|
E|--3--------3------------------------------|
 
e|------------------------------------------|
B|------------------------------------------|
G|-----0--------0------0----0----0----0-(0~)|
D|---5---5----5---5---0-0--0-0--0-0--0-0(0~)|
A|-7--------7--------3----3----3----3---(3~)|
E|------------------------------------------|
                                      (outro)


************************************
| (n) Ghost note
| ~   Vibrato
************************************
Suggest correction
What's this?
You can suggest a correction to this tab. Community and Mods will review your correction and vote to approve or reject it.
comments
print report bad tab
63 comments total. Showing first comments. show 2 bad comments
0 reply
mr_daryl 24 wrote on August 6 2006, 11:06 am

very very good tabbing!! :P

guest
You may want to rate the tab now too:
select rating
Please do not post tabs as comments. Select "correction" instead!