Oops, an error
Loading. Please wait.
We have Chord Pro version of Your Call.
It's the closest thing you can get to the original song and it has interactive parts. Check out the tab »
×
1,529,107 views 717 this week
63 commentsread comments
1 2 3 4 5
x 228
add to favorites
×
Save as Personal and add changes to this tab that will be seen only by you. Learn more ›
×
You can save this tab as Personal to edit and correct it or add notes. All changes will be seen only by you. Learn more »
launch autoscroll
font size
0
reset
how to read this tab
guitar tuner
edit
Autoscroll
slow
fast
+/-
esc
set tempo
stop
Author
---------------------------------------------
     "Your Call" - Secondhand Serenade

http://www.purevolume.com/secondhandserenade
---------------------------------------------
Tabbed by: Justin RiRaY
CHECK OUT MY YOUTUBE http://www.youtube.com/justinriray
Email: Pakman7JR@hotmail.com 

Tuning: eBGDAE
*The new version is tuned half step down, but it is the same chord lay out.


[INTRO] x2
 
e|------------------------------------------|
B|------------------------------------------|
G|------0--------0--------0--------0--------|
D|----0---0----4---4----5---5----5---0------|
A|--3--------5--------7--------7------------|
E|------------------------------------------|


[VERSE] x6
 
e|------------------------------------------|
B|------------------------------------------|
G|------0--------0--------0--------0--------|
D|----0---0----4---0----5---5----5---0------|
A|--3--------5--------7--------7------------|
E|------------------------------------------|


[CHORUS] x2

e|------------------------------------------|
B|------------------------------------------|
G|------0--------0--------0--------0--------|
D|----0---0----0---0----4---4----4---4------|
A|--------------------5--------5------------|
E|--3--------3------------------------------|
 
e|------------------------------------------|
B|------------------------------------------|
G|------0--------0--------0--------0--------|
D|----5---5----5---5----0---0----0---0------|
A|--7--------7--------3--------3------------|
E|------------------------------------------|
 
e|------------------------------------------|
B|------------------------------------------|
G|------0--------0--------0--------0--------|
D|----0---0----0---0----4---4----4---4------|
A|--------------------5--------5------------|
E|--3--------3------------------------------|
 
e|------------------------------------------|
B|------------------------------------------|
G|-----0--------0------0----0----0----0-(0~)|
D|---5---5----5---5---0-0--0-0--0-0--0-0(0~)|
A|-7--------7--------3----3----3----3---(3~)|
E|------------------------------------------|
                                     


[POST-CHORUS]
 
e|-------------|   |----------------------|
B|-------------|   |----------------------|
G|-------------|   |---0----0----0----0---|
D|-------------|X4 |--0-0--4-0--5-5--5-0--|X2
A|--3--5-------|   |-3----5---------------|
E|--------0--0-|   |-----------0----0-----|


[CHORUS] x2

e|------------------------------------------|
B|------------------------------------------|
G|------0--------0--------0--------0--------|
D|----0---0----0---0----4---4----4---4------|
A|--------------------5--------5------------|
E|--3--------3------------------------------|
 
e|------------------------------------------|
B|------------------------------------------|
G|------0--------0--------0--------0--------|
D|----5---5----5---5----0---0----0---0------|
A|--7--------7--------3--------3------------|
E|------------------------------------------|
 
e|------------------------------------------|
B|------------------------------------------|
G|------0--------0--------0--------0--------|
D|----0---0----0---0----4---4----4---4------|
A|--------------------5--------5------------|
E|--3--------3------------------------------|
 
e|------------------------------------------|
B|------------------------------------------|
G|-----0--------0------0----0----0----0-(0~)|
D|---5---5----5---5---0-0--0-0--0-0--0-0(0~)|
A|-7--------7--------3----3----3----3---(3~)|
E|------------------------------------------|
                                     

[BRIDGE] x4
 
e|------------------------------------------|
B|------------------------------------------|
G|------0--------0--------0--------0--------|
D|----5---5----4---4----0---0----4---4------|
A|--7--------5--------3--------5------------|
E|------------------------------------------|

little dingy thing   e|-10-10-10-8-7--7--8--|
     

[CHORUS] x4

e|------------------------------------------|
B|------------------------------------------|
G|------0--------0--------0--------0--------|
D|----0---0----0---0----4---4----4---4------|
A|--------------------5--------5------------|
E|--3--------3------------------------------|
 
e|------------------------------------------|
B|------------------------------------------|
G|------0--------0--------0--------0--------|
D|----5---5----5---5----0---0----0---0------|
A|--7--------7--------3--------3------------|
E|------------------------------------------|
 
e|------------------------------------------|
B|------------------------------------------|
G|------0--------0--------0--------0--------|
D|----0---0----0---0----4---4----4---4------|
A|--------------------5--------5------------|
E|--3--------3------------------------------|
 
e|------------------------------------------|
B|------------------------------------------|
G|-----0--------0------0----0----0----0-(0~)|
D|---5---5----5---5---0-0--0-0--0-0--0-0(0~)|
A|-7--------7--------3----3----3----3---(3~)|
E|------------------------------------------|
                                      (outro)


************************************
| (n) Ghost note
| ~   Vibrato
************************************

            
            
Suggest correction
Creating personal tab
Creating personal tab
You can edit any tab online and save it as your Personal.

You can edit, replace or remove any tab part or add personal notes – all changes will be seen only by you.

Personal tabs can be accessed anytime from any device, even offline.
Learn more »
comments
print report bad tab
63 comments total. Showing first comments.
0 reply
mr_daryl 10 Aug 06, 2006 07:06 AM

very very good tabbing!! :P

0 reply
UberGuitarGuy 10 Sep 03, 2006 05:33 PM

ne1 know wat chords are in it??

0 reply
Rock_On891 10 Sep 03, 2006 06:51 PM

Sweet ass tab dude

guest
You may want to rate the tab now too:
select rating
Wanna post a correction for this tab? Suggest correction