Oops, an error
Loading. Please wait.

Amor Bass Tab

728 views 3 this week
no commentswrite comment
1 2 3 4 5
3 more votes to show rating
add to favorites
launch autoscroll
font size
0
reset
guitar tuner
Autoscroll
slow
fast
+/-
esc
set tempo
stop
Help us to improve Ultimate-Guitar.com Take our survey!
×
Author
Difficulty
Tuning
intermediate
C F A# D# G C
Transcrição: Fabio Beig                                      
                                               
                                                                   
G||------------------|---------------------|--5-5-----------------|
D||------------------|-------------------5-|----------------------|
A||-r----------------|--3------------------|----------------------|
E||------------------|---------------------|----------------------|


                                                       
---------------------||----------------------5--2-----|
------------------5/-||*-----------------2-5------5-0-|
--3------------------||*--3-2-3--r-3-2-3--------------|
---------------------||-------------------------------|


                                                              
------------------------------||---------------------5--2----|
--------0--0-1---2---3-2-3p2-*||-----------------2-5------5--|
--1-0-1----------------------*||--3-2-3--r-3-2-3-------------|
------------------------------||-----------------------------|


                                                               
--------------------|---------------------|-------------------|
--------------------|---------------------|-------------------|
--1-r---------------|--3--3-r-------------|-r-----------------|
--------------------|---------------------|-------------------|


                                                                 
|----------------------5--2-----|------------------------------||
|*-----------------2-5------5-0-|--------0--0-1---2---3-2-3p2-*||
|*--3-2-3--r-3-2-3--------------|--1-0-1----------------------*||
|-------------------------------|------------------------------||


                                                   
---------------------5--2----|--------------------|
-----------------2-5------5--|--------------------|
--3-2-3--r-3-2-3-------------|--1-r---------------|
-----------------------------|--------------------|


                                                               2x
|----------------------5--2-----|------------------------------||
|*-----------------2-5------5-0-|--------0--0-1---2---3-2-3p2-*||
|*--3-2-3--r-3-2-3--------------|--1-0-1----------------------*||
|-------------------------------|------------------------------||


                                                   
---------------------5--2----|--------------------|
-----------------2-5------5--|--------------------|
--3-2-3--r-3-2-3-------------|--1-r---------------|
-----------------------------|--------------------|


                                                             
---------------------5--2-----|-----------------------------|
-----------------2-5------5-0-|--------0--0-1---2---3-2-3p2-|
--3-2-3--r-3-2-3--------------|--1-0-1----------------------|
------------------------------|-----------------------------|


                                                         
--------------------------|---------------------5p3-----|
--3-----------------------|--------2--x-3--x-5------5p3-|
-----x-3--------0--1--2---|--3-2-3----------------------|
----------x-1-------------|-----------------------------|


                                                     
---------------------------|---------5---5--3-------|
--3------------------------|-----3h5------------3h5-|
-----x-3--------0--1--2--3-|------------------------|
----------x-1--------------|------------------------|


                                                   
--3----------------------------------------5h7-5--|
------x-3------------------------------5h7--------|
------------x-1-----------------------------------|
--------------------------------------------------|


                                                                 
|----------------------5--2-----|------------------------------||
|*-----------------2-5------5-0-|--------0--0-1---2---3-2-3p2-*||
|*--3-2-3--r-3-2-3--------------|--1-0-1----------------------*||
|-------------------------------|------------------------------||


                                                                         
---------------------5--2----|--------------------|---------------------|
-----------------2-5------5--|--------------------|---------------------|
--3-2-3--r-3-2-3-------------|--1-r---------------|--3--3-r-------------|
-----------------------------|--------------------|---------------------|


                                                     
-------------------||----------------------5--2-----|
-------------------||*-----------------2-5------5-0-|
-r-----------------||*--3-2-3--r-3-2-3--------------|
-------------------||-------------------------------|


                              2x                          5x                    
------------------------------||-------------3------------||------------------||
--------0--0-1---2---3-2-3p2-*||*--------3-5--------5p3--*||------------------||
--1-0-1----------------------*||*--3---3-----------------*||--3-r-------------||
------------------------------||--------------------------||------------------||

r -> pausa
/ -> slide
h -> hammer on 
p -> pull off
Suggest correction
Give kudos to tab author, rate the tab!
1 2 3 4 5
comments
print report bad tab
guest
You may want to rate the tab now too:
select rating
Wanna post a correction for this tab? Suggest correction