Oops, an error
Loading. Please wait.

O Vira Bass Tab

10 views 1 this week
no commentswrite comment
1 2 3 4 5
3 more votes to show rating
add to favorites
launch autoscroll
font size
0
reset
guitar tuner
Autoscroll
slow
fast
+/-
esc
set tempo
stop
Help us to improve Ultimate-Guitar.com Take our survey!
×
Author
Difficulty
novice
[Intro]

G|--------------|--------------|--------------|--------------|
D|--------------|--------------|--------------|--------------|
A|--3--3--3--3--|--3--3--3--3--|--3--3--3--3--|--3--3--3--3--|
E|--------------|--------------|--------------|--------------|


[Verse 1]

G|--------------|--5--3--2--0--|--------------|--------------|
D|-----2--3--4--|--------------|--3--2--0-----|--------------|
A|--3-----------|--------------|-----------3--|-----0--1--2--|
E|--------------|--------------|--------------|--1-----------|


G|--------------|--5--4--2-------|-------------|--------------|
D|-----2--3--4--|-----------3--4-|-5--3--2--3--|--5--3--2--0--|
A|--3-----------|----------------|-------------|--------------|
E|--------------|----------------|-------------|--------------|


[Chorus]

G|--------------|--5--3--2--0--|--------------|--------------|
D|-----2--3--4--|--------------|--3--2--0-----|--------------|
A|--3-----------|--------------|-----------3--|-----0--1--2--|
E|--------------|--------------|--------------|--1-----------|


G|--------------|--------------|----------------|----------------|
D|--------------|--5--3--2--0--|----------------|----------------|
A|-----2--3--4--|--------------|--3-------------|----------------|
E|--3-----------|--------------|----------------|----------------|


G|--------------|--------------|
D|--5--3--2--3--|--5--3--2--0--|
A|--------------|--------------|
E|--------------|--------------|


G|--------------|--5--4--2-------|-------------|--------------|
D|-----2--3--4--|-----------3--4-|-5--3--2--3--|--5--3--2--0--|
A|--3-----------|----------------|-------------|--------------|
E|--------------|----------------|-------------|--------------|


[Verse 2]

G|--------------|--5--5-3--2--0--|--------------|--------------|
D|-----2--3--4--|----------------|--3--2--0-----|--------------|
A|--3-----------|----------------|-----------3--|-----0--1--2--|
E|--------------|----------------|--------------|--1-----------|


G|--------------|--5--5-4--2-------|-------------|--------------|
D|-----2--3--4--|-------------3--4-|-5--3--2--3--|--5--3--2--0--|
A|--3-----------|------------------|-------------|--------------|
E|--------------|------------------|-------------|--------------|


[Chorus]

G|--------------|--5--3--2--0--|--------------|--------------|
D|-----2--3--4--|--------------|--3--2--0-----|--------------|
A|--3-----------|--------------|-----------3--|-----0--1--2--|
E|--------------|--------------|--------------|--1-----------|


G|--------------|--------------|----------------|----------------|
D|--------------|--5--3--2--0--|----------------|----------------|
A|-----2--3--4--|--------------|--3-------------|----------------|
E|--3-----------|--------------|----------------|----------------|


G|--------------|--------------|
D|--5--3--2--3--|--5--3--2--0--|
A|--------------|--------------|
E|--------------|--------------|


G|--------------|--5--5-4--2-------|-------------|--------------|
D|-----2--3--4--|-------------3--4-|-5--3--2--3--|--5--3--2--0--|
A|--3-----------|------------------|-------------|--------------|
E|--------------|------------------|-------------|--------------|


[Instrumental]

G|--------------|--5--3--2--0--|--------------|--------------|
D|-----2--3--4--|--------------|--3--2--0-----|--------------|
A|--3-----------|--------------|-----------3--|-----0--1--2--|
E|--------------|--------------|--------------|--1-----------|


G|--------------|--5--4--2-------|-------------|--------------|
D|-----2--3--4--|-----------3--4-|-5--3--2--3--|--5--3--2--0--|
A|--3-----------|----------------|-------------|--------------|
E|--------------|----------------|-------------|--------------|


G|--------------|--5--3--2--0--|--------------|--------------|
D|-----2--3--4--|--------------|--3--2--0-----|--------------|
A|--3-----------|--------------|-----------3--|-----0--1--2--|
E|--------------|--------------|--------------|--1-----------|


G|--------------|--------------|----------------|----------------|
D|--------------|--5--3--2--0--|----------------|----------------|
A|-----2--3--4--|--------------|--3-------------|----------------|
E|--3-----------|--------------|----------------|----------------|


[Bridge]

G|--------------|--------------|--------------|--------------| (x2)
D|--------5-----|--------5-----|--------5-----|--------5-----|
A|--5---5-------|--5---5-------|--3---3-------|--3---3-------|
E|-----------3--|-----------3--|-----------3--|-----------3--|


G|--------5-----|--------5-----|--------------|--------------|
D|--3---3-------|--3---3-------|--------5-----|--------5-----|
A|-----------3--|-----------3--|--3---3-------|--3---3-------|
E|--------------|--------------|-----------3--|-----------3--|


G|--------------|--------------|--------------|--------------| 
D|--------5-----|--------5-----|--------5-----|--------5-----|
A|--5---5-------|--5---5-------|--3---3-------|--3---3-------|
E|-----------3--|-----------3--|-----------3--|-----------3--|


G|--------5-----|--------5-----|--------------|--------------|--------------|--------------|
D|--3---3-------|--3---3-------|--------5-----|--------5-----|--------------|--------------|
A|-----------3--|-----------3--|--5---5-------|--5---5-------|--3-----------|--------------|
E|--------------|--------------|-----------3--|-----------3--|--------------|--------------|


[Outro]

G|--------------|--------------|--------------|--------------| (x2)
D|--------5-----|--------5-----|--------5-----|--------5-----|
A|--5---5-------|--5---5-------|--3---3-------|--3---3-------|
E|-----------3--|-----------3--|-----------3--|-----------3--|


G|--------------|--------------|--------------|
D|--------5-----|--------5-----|--------------|
A|--5---5-------|--5---5-------|--3-----------|
E|-----------3--|-----------3--|--------------|



**********************************

in regular sequence!

**********************************
Suggest correction
Give kudos to tab author, rate the tab!
1 2 3 4 5
comments
print report bad tab
guest
You may want to rate the tab now too:
select rating
Wanna post a correction for this tab? Suggest correction