Oops, an error
Loading. Please wait.

Sangue Latino Bass Tab

4 views 1 this week
no commentswrite comment
1 2 3 4 5
3 more votes to show rating
add to favorites
launch autoscroll
font size
0
reset
guitar tuner
Autoscroll
slow
fast
+/-
esc
set tempo
stop
Help us to improve Ultimate-Guitar.com Take our survey!
×
Author
Difficulty
novice
[Intro]

G|-----------|-----7------|-----------|-----7------| (x3)
D|-7-9--0----|-7-9---0----|-7-9--0----|-7-9---0----|
A|-----------|------------|-----------|------------|
E|-----------|------------|-----------|------------|


[Verse 1]

G|-----------|-----7------|-----------|-----7------| (x2)
D|-7-9--0----|-7-9---0----|-7-9--0----|-7-9---0----|
A|-----------|------------|-----------|------------|
E|-----------|------------|-----------|------------|


[Chorus]

G|-----------|-------------|-----------|-----7------|
D|-7-9--7----|-9-7-\5-5----|-7-9--0----|-7-9---0----|
A|-----------|-------------|-----------|------------|
E|-----------|-------------|-----------|------------|


[Verse 2]

G|-----------|-----7------|-----------|-----7------| (x4)
D|-7-9--0----|-7-9---0----|-7-9--0----|-7-9---0----|
A|-----------|------------|-----------|------------|
E|-----------|------------|-----------|------------|


[Chorus]

G|-----------|-------------|-----------|-----7------|
D|-7-9--7----|-9-7-\5-5----|-7-9--0----|-7-9---0----|
A|-----------|-------------|-----------|------------|
E|-----------|-------------|-----------|------------|


[Verse 3]

G|-----------|-----7------|-----------|-----7------| (x2)
D|-7-9--0----|-7-9---0----|-7-9--0----|-7-9---0----|
A|-----------|------------|-----------|------------|
E|-----------|------------|-----------|------------|


[Chorus]

G|-----------|-------------|-----------|-----7------|
D|-7-9--7----|-9-7-\5-5----|-7-9--0----|-7-9---0----|
A|-----------|-------------|-----------|------------|
E|-----------|-------------|-----------|------------|


[Verse 4]

G|-----------|-----7------|-----------|-----7------| (x2)
D|-7-9--0----|-7-9---0----|-7-9--0----|-7-9---0----|
A|-----------|------------|-----------|------------|
E|-----------|------------|-----------|------------|


[Outro]

G|-----------|-----7------|-----------|-----7----------------|
D|-7-9--0----|-7-9---0----|-7-9--0----|-7-9------------------|
A|-----------|------------|-----------|-------10---9---7--5--|
E|-----------|------------|-----------|----------------------|



*******************************

| \ : slide down

*******************************

in regular sequence!
Suggest correction
Give kudos to tab author, rate the tab!
1 2 3 4 5
comments
print report bad tab
guest
You may want to rate the tab now too:
select rating
Wanna post a correction for this tab? Suggest correction