Oops, an error
Loading. Please wait.

Lovers intro tab

version 1
version 1

Intro

Whole song

Interactive

1,193 views 3 this week
2 commentsread comments
1 2 3 4 5
2 more votes to show rating
add to favorites
×
Save as Personal and add changes to this tab that will be seen only by you. Learn more ›
×
You can save this tab as Personal to edit and correct it or add notes. All changes will be seen only by you. Learn more »
launch autoscroll
font size
0
reset
how to read this tab
guitar tuner
edit
Autoscroll
slow
fast
+/-
esc
set tempo
stop
Ok let’s try this again. Hopefully this one will be better than my disaster of “xoxoxo”. 
you play these riffs, don’t hold any strings longer than you have to if want it to 
sharp and clear. Remember, Staccatos are everywhere even though they aren’t marked.

  I’m pretty sure this is right. If you have any comments PLEEZ don’t hesitate to e-mail 
Tell me what you think. Danburage@yahoo.com. Thanks!!!!!


Drop C!!!!!!!!

D|----------22---22-----------------------21---------17--|
A|--0---19-----0----19—-0—-19—-17—-0—-17-----0---17------|
F|-------------------------------------------------------|
C|-------------------------------------------------------|
G|-------------------------------------------------------|
C|-------------------------------------------------------|


D|------17---14-----------------------------------------|
A|--15-----------------------17—17------------15--------|
F|------------------16---16----------14---14------------|
C|-----------------------------------------------(x3)---|
G|------------------------------------------------------|
C|------------------------------------------------------|

                               Then repeat both of these lines again, Then……


D|----------22---22-----------------21---------17--|
A|--0---19----0----19—0—19—17—0—17-----0---17------|
F|-------------------------------------------------|
C|-------------------------------------------------|
G|-------------------------------------------------|
C|-------------------------------------------------|




                                         BRIDGE

D|-------------12—14------------14---17---19---14(slide down)--|
A|--12---15------------12--------------------------------------|
F|-------------------------------------------------------------|
C|-------------------------------------------------------------|
G|-------------------------------------------------------------|
C|-------------------------------------------------------------|


D|----10---12---14---10-------------------------14----------------|
A|---------------------------14----12-----------------------------|
F|----------------------------------------14----------------------|
C|----------------------------------------------------------------|
G|----------------------------------------------------------------|
C|----------------------------------------------------------------|


                               (Play bridge again)

            
            
Suggest correction
Creating personal tab
Creating personal tab
You can edit any tab online and save it as your Personal.

You can edit, replace or remove any tab part or add personal notes – all changes will be seen only by you.

Personal tabs can be accessed anytime from any device, even offline.
Learn more »
Give kudos to tab author, rate the tab!
1 2 3 4 5
comments
print report bad tab
2 comments total.
0 reply
Lucifer1805 51 Aug 06, 2008 08:45 AM

gave it three stars cus some bits were off
in fact might change it to 4 cus its not terribly wrong
right down to the way i play it
[play times three]
D [---------22-22-----------21---17[----17-0-14------------------]
A [-----0-19-----19-19\17-17--15---[0-15-------15-15-17-17-----15]
F [--------------------------------[----------------------14-12--]
C [--------------------------------[-----------------------------]
G [--------------------------------[-----------------------------]
C [--------------------------------[-----------------------------]
repeat that once
then
D [--------22-22-----------21--17][----------------17-19--]
A [----0-19-----19-19\17-17--15--][------17-19---19-----19]
F [------------------------------][-16-19-----16----------]
C [------------------------------][-----------------------]
G [------------------------------][-----------------------]
C [------------------------------][-----------------------]

D [--------------------------------]
A [------17-19\15-19\14-17\12-15\10]
F [-16-19--------------------------]
C [--------------------------------]
G [--------------------------------]
C [--------------------------------]

D [------------------------------------]
A [-19-17--17--------------------------]
F [------19--19p18h19p18h19\16h18p16h18] play three times
C [------------------------------------]
G [------------------------------------]
C [------------------------------------]


in hindsight i should have just told you i'm workin on tabbing it
but my computers slow so it might be a week or so til its up
lol
about to tab the song minus the interlude bit cus i still need to figure that out

0 reply
Lucifer1805 51 Aug 06, 2008 08:54 AM

my bad
the first bit you only play the second bar times three

guest
You may want to rate the tab now too:
select rating
Wanna post a correction for this tab? Suggest correction