Oops, an error
Loading. Please wait.

Wasted Youth tab

253 views 3 this week
no commentswrite comment
1 2 3 4 5
2 more votes to show rating
add to favorites
×
Save as Personal and add changes to this tab that will be seen only by you. Learn more ›
×
You can save this tab as Personal to edit and correct it or add notes. All changes will be seen only by you. Learn more »
launch autoscroll
font size
0
reset
how to read this tab
guitar tuner
edit
Autoscroll
slow
fast
+/-
esc
set tempo
stop
                                            Wasted Youth-Secret band


*I figured this out by ear so it probably isn't 100% right, but it is a start.
*This is also a mixture of the two guitars I was not able to figure them both out yet

[Intro]
(Listen for the strumming pattern)

e|-----------------------------------------|
B|-----8-----13--12------8------17--15-----|
G|-----9-----12--12------9------17--16-----|
D|-----------------------------------------|
A|-----------------------------------------|
D|-----------------------------------------|


Brain washed the headlines...
e|---------------------------------------------------------------------------|
B|-----8-----13--12------8------17--15-----8-----17--15------8------13--12---|
G|-----9-----12--12------9------17--16-----9-----17--16------9------12--12---|
D|---------------------------------------------------------------------------|
A|---------------------------------------------------------------------------|
D|---------------------------------------------------------------------------|

               These ghost...  
e|-------------------------------------------|
B|-----8-8-8-8-8-8-8-8-8-8-8-8-8-8-8-8-------|
G|-----9-9-9-9-9-9-9-9-9-9-9-9-9-9-9-9-------|
D|-------------------------------------------|
A|-------------------------------------------|
D|-------------------------------------------|


     Even after all of this time...
e|-------------------------------------------|      e|----------------------------|
B|---------17-------15-----------------------|      B|----------------------------|
G|---17-17----16-16----14-14-14-12-14--------| X 8  G|----------------------------|
D|---------14-------12-----------------------|      D|----------------------------|
A|---15-15----14-14----12-12-12-10-12--------|      A|----------------------------|
D|-------------------------------------------|      D|--22-22-22-2----------------|

 
e|-----------------7--------7-8----17---------------------------------|
B|-------------8-10-----8-10---------17-15-12h13p12-------------------|
G|-----------9--------9----------------------------12-----------------|
D|---------10---------------------------------------------------------| X 2
A|--------------------------------------------------------------------|
D|--------------------------------------------------------------------|

We will never  be the same...
e|------12h13p12-------------------------12h13p12----------------------------|
B|--------------12h13p12--12h13p12----------------12h13p12-12-13-15-13-12+---|
G|--------------------------------12-9---------------------------------------|
D|---------------------------------------------------------------------------|
A|---------------------------------------------------------------------------|
D|---------------------------------------------------------------------------|


e|------12h13p12-------------------------------------------------------------|
B|--------------12h13p12--12h13p12-------------------10-13-12----------------|
G|--------------------------------12-9--------9-12-10------------------------|
D|-------------------------------------9-12-10-------------------------------|
A|---------------------------------------------------------------------------|
D|---------------------------------------------------------------------------|


e|------12h13p12-------------------------12h13p12----------------------------|
B|--------------12h13p12--12h13p12----------------12h13p12-12-13-15-13-12+---|
G|--------------------------------12-9---------------------------------------|
D|---------------------------------------------------------------------------|
A|---------------------------------------------------------------------------|
D|---------------------------------------------------------------------------|


e|------12h13p12-------------------------------------------------------------|
B|--------------12h13p12--12h13p12-------------------10-13-12----------------|
G|--------------------------------12-9--------9-12-10------------------------|
D|-------------------------------------9-12-10-------------------------------|
A|---------------------------------------------------------------------------|
D|---------------------------------------------------------------------------|


e|---------------------------------------------------------------------------|
B|---------------------------------------------------------------------------|
G|------------------------------9-7-5-----------------------------9-5--------|
D|---------------------------------------------------------------------------| X 2
A|----7-5-7-3-7-3-5-7-7-5-7-3-7-7-5-3--7-5-7-3-7-3-5-7-7-5-7-3-7--7-3--------|
D|---------------------------------------------------------------------------|
                                x x x


e|---------------------------------------------|
B|----------------3-5-6------------------------|
G|-----------2-3-5-----------------------------|
D|------2-3-5----------------------------------|
A|---3-5---------------------------------------|
D|---------------------------------------------|


  But what is sanity...

e|-14p12p10-14p12p10-14p12p10-14p12p10---14p12p10-14p12p10-18p14p12-18p14p12-|
B|---------------------------------------------------------------------------|
G|---------------------------------------------------------------------------|
D|---------------------------------------------------------------------------| X2
A|---------------------------------------------------------------------------|
D|---------------------------------------------------------------------------|


 Hands Stained with blood

e|--14p12p10-14p12p10-14p12p10-14p12p10-----|
B|------------------------------------------|
G|------------------------------------------|  Do this until the end and throw in the 18p14p12 if you want to
D|------------------------------------------|  
A|------------------------------------------|
D|------------------------------------------|


*************************************

| h   hammer-on
| p   pull-off
| +   harmonic
| x   Mute note

*************************************

            
            
Suggest correction
Creating personal tab
Creating personal tab
You can edit any tab online and save it as your Personal.

You can edit, replace or remove any tab part or add personal notes – all changes will be seen only by you.

Personal tabs can be accessed anytime from any device, even offline.
Learn more »
Give kudos to tab author, rate the tab!
1 2 3 4 5
comments
print report bad tab
guest
You may want to rate the tab now too:
select rating
Wanna post a correction for this tab? Suggest correction