Oops, an error
Loading. Please wait.

Renunciation tab

version 1
version 1

Whole song

1,218 views 1 this week
1 commentread comment
1 2 3 4 5
2 more votes to show rating
add to favorites
×
Save as Personal and add changes to this tab that will be seen only by you. Learn more ›
×
You can save this tab as Personal to edit and correct it or add notes. All changes will be seen only by you. Learn more »
launch autoscroll
font size
0
reset
how to read this tab
guitar tuner
edit
Autoscroll
slow
fast
+/-
esc
set tempo
stop
Secret Chiefs 3 - Renunciation (Capo on 1st)
Tabbed by: Neil R. Rose
neil.damage.done@gmail.com

This tab is not very accurate. I kind of laid down just the outline of it. I'm hoping 
can enhance the song. Any help would be greatly appreciated.
Any info contact: neil.damage.done@gmail.com

Capo on 1st

|-----------0----0-----------------0----0-----------------------------------|
|--------0----------0-----------0----------0--------------------------------|
|-----2----------------2-----2----------------2-----------------------------|
|--3----------------------3----------------------3--------------------------|
|---------------------------------------------------------------------------|
|---------------------------------------------------------------------------|

Section 1
|----------------5----------------------------------------------------------|
|--0---3--5-6-5-----6---5--6--5--3-----0--3--5-6-5--6--5--3-5-3-------------|
|---------------------------------------------------------------------------|
|---------------------------------------------------------------------------|
|---------------------------------------------------------------------------|
|---------------------------------------------------------------------------|

Riff 1
|---6/7\6---4---------------------------------------------------------------|
|--------------6---4---4---6/7-7-7-7-6--------------------------------------|
|--------------------5------------------------------------------------------|
|---------------------------------------------------------------------------|
|---------------------------------------------------------------------------|
|---------------------------------------------------------------------------|

Section 2
|---7----5-7/8--7--5--7--5----0---5/7---5h7p5----0--3---5/8---5--3----------|
|-------------------------------------------------------------------6--5----|
|---------------------------------------------------------------------------|
|---------------------------------------------------------------------------|
|---------------------------------------------------------------------------|
|---------------------------------------------------------------------------|


http://www.webofmimicry.com/label.php?band=sc3
http://www.myspace.com/secretchiefs3

            
            
Suggest correction
Creating personal tab
Creating personal tab
You can edit any tab online and save it as your Personal.

You can edit, replace or remove any tab part or add personal notes – all changes will be seen only by you.

Personal tabs can be accessed anytime from any device, even offline.
Learn more »
Give kudos to tab author, rate the tab!
1 2 3 4 5
comments
print report bad tab
1 comment total.
0 reply
Neil R. Rose 333 Jun 28, 2010 11:28 PM

Section 1
|----------------5----------------------------------------------------------|
|--0---3--5-6-5-----6---5--6--5--3-----0--3--5-6-5--6--5--3-5-3-------------|
|---------------------------------------------------------------------------|
|---------------------------------------------------------------------------|
|---------------------------------------------------------------------------|
|---------------------------------------------------------------------------|

Riff 1
|---6/7\6---4---------------------------------------------------------------|
|--------------6---4---4---6/7-7-7-7-6--------------------------------------|--------------------5------------------------------------------------------|
|---------------------------------------------------------------------------|
|---------------------------------------------------------------------------|
|---------------------------------------------------------------------------|

Section 2
|---7----5-7/8--7--5--7--5----0---5/7---5h7p5----0--3---5/8---5--3----------|
|-------------------------------------------------------------------6--5----|
|---------------------------------------------------------------------------|
|---------------------------------------------------------------------------|
|---------------------------------------------------------------------------|
|---------------------------------------------------------------------------|

guest
You may want to rate the tab now too:
select rating
Wanna post a correction for this tab? Suggest correction