Oops, an error
Loading. Please wait.

I Do What I Want tab

22 views 1 this week
no commentswrite comment
1 2 3 4 5
3 more votes to show rating
add to favorites
×
Save as Personal and add changes to this tab that will be seen only by you. Learn more ›
×
You can save this tab as Personal to edit and correct it or add notes. All changes will be seen only by you. Learn more »
launch autoscroll
font size
0
reset
how to read this tab
guitar tuner
edit
Autoscroll
slow
fast
+/-
esc
set tempo
stop
Author
Difficulty

Tabbed by: Seth Husband
E-mail: seth.husband.11@gmail.com
Tuning: E A D G B E

Band name: Secret Club
Song name : I Do What I Want

This is my first tab, I'm pretty certain it is correct. Listen to the song 
for timings.


Verse- each chord written is strummed and is worth one bar.

e|---------------------------------------------------------------------------|
B|---------------------------------------------------------------------------|
G|-7----7----7----7----------------------------------------------------------|
D|-7----7----7----7----5----7------------------------------------------------|
A|-5----5----5----5----5----7------------------------------------------------|
E|---------------------3----5------------------------------------------------|


Chorus- each chord written is worth half a bar

e|---------------------------------------------------------------------------|
B|---------------------------------------------------------------------------|
G|-7---------5---------------------------------------------------------------|
D|-7----7----5----5----------------------------------------------------------|
A|-5----7----3----5----------------------------------------------------------|
E|------5---------3----------------------------------------------------------|


Bridge- each group of chords is worth two bars.

e|---------------------------------------------------------------------------|
B|---------------------------------------------------------------------------|
G|---------------------------------------------------------------------------|
D|-3/5-X-X----3\5-X-X----3/5-5-5----3/5-5-5----------------------------------|
A|-3/5-X-X----3\5-X-X----3/5-5-5----3/5-5-5----------------------------------|
E|-1/3-X-X----1\3-X-X----1/3-3-3----1/3-3-3----------------------------------|


Verse x2
Chorus x4
Verse x2
Chorus x4
Bridge x1
Verse x2
Chorus x4
Suggest correction
Creating personal tab
Creating personal tab
You can edit any tab online and save it as your Personal.

You can edit, replace or remove any tab part or add personal notes – all changes will be seen only by you.

Personal tabs can be accessed anytime from any device, even offline.
Learn more »
Give kudos to tab author, rate the tab!
1 2 3 4 5
comments
print report bad tab
guest
You may want to rate the tab now too:
select rating
Wanna post a correction for this tab? Suggest correction