Oops, an error
Loading. Please wait.

First Wave Intact Tab

912 views 1 this week
no commentswrite comment
1 2 3 4 5
worth learning
x 5
add to favorites
launch autoscroll
font size
0
reset
how to read this tab
guitar tuner
Tab Pro tools
  • play this tab
  • loop segment
  • change instrument
  • show fretboard
  • metronome
Autoscroll
slow
fast
+/-
esc
set tempo
stop
                             

first wave intact - the secret machines
Tabbed by:anson 
Email:

Tuning:

great song....this should be somewhat right

INTRO

e|---3-------|
B|---3-------|
G|---4-------|
D|---5-------|
A|---5-------|
E|---3-------|

hold this chord

figure 1
e|----------------------|
B|----------------------|
G|----------------2-----|
D|--5-5-5-5-5-5-5---3---|
A|----------------------|
E|----------------------|

8X

D|----5////-------------|

dont play through the verse

"First Wave Down!"
e|----------------|
B|----------------|
G|----------------|
D|---5---4---3----|
A|---5---4---3----|
E|---3---2---1----|

"As leaves from modern trees"
e|------------------------------|
B|------------------------------|
G|--3---------------------------|
D|--3---3---5-------7---3---5---|
A|--1---3---5-------7---3---3---|
E|------1---3-------5---1---3---|


back to figure 1
then...

"i wonder what your waiting for"
e|--------------------------------------11---|
B|-----------------------8-----6h8-8p6-------|
G|----5-7-7-----5h7-7p5----------------------|
D|--7----------------------------------------|
A|-------------------------------------------|
E|-------------------------------------------|

"First Wave Down!"
e|--------------|
B|--------------|
G|--------------|
D|--5---4---3---|
A|--3---4---3---|
E|--3---3---1---|

"First Wave Intact!"
e|------------------|
B|------------------|
G|------------------|
D|--5---4---3---5---|
A|--3---2---3---3---|
E|--3---2---1---3---|

"As leaves from modern trees"
e|------------------------------|
B|------------------------------|
G|--3---------------------------|
D|--3---3---5-------7---3---5---|
A|--1---3---5-------7---3---3---|
E|------1---3-------5---1---3---|

INTRO CHORD
FIGURE 1
then....

play this outro chord for the rest of the song
e|--------------------------------------|
B|-----------------4-4-4-4-4-4-4-4------|
G|--4-4-4-4-4-4-4--5-5-5-5-5-5-5-5--4---|
D|--5-5-5-5-5-5-5--5-5-5-5-5-5-5-5--5---|
A|--5-5-5-5-5-5-5--3-3-3-3-3-3-3-3--5---|
E|--3-3-3-3-3-3-3-------------------3---|


| /  slide up
| \  slide down
| h  hammer-on
| p  pull-off
| ~  vibrato
| +  harmonic
| x  Mute note
comments
print report bad tab
I want to post or [tab]
guest
You may want to rate the tab now too:
select rating
Please do not post tabs as comments. Select "correction" instead!