Oops, an error
Loading. Please wait.

Nowhere Again Tab

version 2
version 2

Whole song

Interactive

1,761 views 6 this week
no commentswrite comment
1 2 3 4 5
accurate
x 3
add to favorites
launch autoscroll
font size
0
reset
how to read this tab
guitar tuner
Tab Pro tools
  • play this tab
  • loop segment
  • change instrument
  • show fretboard
  • metronome
×
Best way to learn
"Nowhere Again"
Autoscroll
slow
fast
+/-
esc
set tempo
stop
By Hanif Payandeh

    B5       F#m/B     Ab5/B         F#m/B
e|---------|---------|-------------|---------|
B|---------|---------|-------------|---------|
G|---------|---------|-------------|---------| B Chord Variations:(B)
D|-9-9-9-9-|-7-7-7-7-|-------------|-7-7-7-7-|
A|-9-9-9-9-|-9-9-9-9-|-11-11-11-11-|-9-9-9-9-|
E|-7-7-7-7-|-7-7-7-7-|-7--7--7--7--|-7-7-9-7-|

    E5       Esus4     G#m/E         Esus4
e|---------|---------|-------------|---------|
B|---------|---------|-------------|---------|
G|-9-9-9-9-|-9-9-9-9-|-------------|-9-9-9-9-| E Chord Variations:(E)
D|-9-9-9-9-|-7-7-7-7-|-9--9--9--9--|-7-7-7-7-|
A|-7-7-7-7-|-7-7-7-7-|-11-11-11-11-|-7-7-7-7-|
E|-O-O-O-O-|-O-O-O-O-|-O--O--O--O--|-O-O-O-O-|


e|----------------------|
B|----------------------|
G|----------------------| Transition:(T)
D|------9----12-11-9----|
A|-9/11---11---------11-|
E|-----------------11---|




B 
cellophane flowers never happened for me

been sleeping the day off

watching the night fall
E
covering nowhere

filling my time share
          B
there's a woman in the mirror in a firey state

as she motions to me I start turning away
           E
she's lifting her dress up
 T
trying to keep up
               B
oh you'd be surprised
       E
how we race
           B
while our lives
B
erased....






There's some ambient noises which i'm not going to get into. But that's it
comments
We did not receive enough feedback on this tab! Please rate:
print report bad tab
1 2 3 4 5
I want to post or [tab]
guest
You may want to rate the tab now too:
select rating
Please do not post tabs as comments. Select "correction" instead!