Oops, an error
Loading. Please wait.

Artist Vs Who tab

by SECRETS
268 views 3 this week
no commentswrite comment
1 2 3 4 5
2 more votes to show rating
add to favorites
×
Save as Personal and add changes to this tab that will be seen only by you. Learn more ›
×
You can save this tab as Personal to edit and correct it or add notes. All changes will be seen only by you. Learn more »
launch autoscroll
font size
0
reset
how to read this tab
guitar tuner
edit
Autoscroll
slow
fast
+/-
esc
set tempo
stop
Tabbed by: Marcos Desiderio
"Artist VS Who" from the album Fragile Figures (2013)
Tuning: Drop B

Intro:
(Richard and Michael guitar)
C#|-----------------------------------------------------------------------------------------------------|
G#|-----------------------------------------------------------------------------------------------------|
E |-----------------------------------------------------------------------------------------------------|
B |-----------------------------------------------------------------------------------------------------| [x2]
F#|-0-0--0-0--0-0--0-0--0-0-0-0-0-0--0-0--0-0--0-0--0-0-0-0-0-0--0-0--0-0--0-0--0-0-0-0-----------------|
B |-0-0--0-0--0-0--0-0--0-0-0-0-0-0--0-0--0-0--0-0--0-0-0-0-0-0--0-0--0-0--0-0--0-0-0-0-8--8-7--7-3-----|
PM  . .  . .  . .  . .  . . . . . .  . .  . .  . .  . . . . . .  . .  . .  . .  . . . .    .    .


1st verse:
"So it seems you're a mess..."
(Michael guitar)
C#|---------------------------------------------------------------------------------|
G#|-------10-10-10-10-10-10-10-10-10-10-10-10-10-------10-10-10-10-10-8-8-8-8-8-8-8-|
E |-7-7-7----------------------------------------7-7-7------------------------------|
B |---------------------------------------------------------------------------------|
F#|---------------------------------------------------------------------------------|
B |---------------------------------------------------------------------------------|
PM  . . . .  .  .  .  .  .  .  .  .  .  .  .  .  . . . .  .  .  .  .  . . . . . . .

"It must be hard..."
(Richard guitar)
C#|-------------------------------------------------------------------------------------------------------|
G#|-------------------------------------------------------------------------------------------------------|
E |-------------------------------------------------------------------------------------------------------|
B |-------------------------------------------------------------------------------------------------------| [2X]
F#|-------------------------------------------------------------------------------------------------------|
B |-0-12--0-0-12-12--0-11-11-0--8-8--0-8-8--0-3-2-0-12--0-0-12-12--0-11-11-0-8-(8X)-11-(8X)---------------|

(Michael guitar)
C#|-------------------------------------------------------------------------------------------------------|
G#|-------------------------------------------------------------------------------------------------------|
E |-------------------------------------------------------------------------------------------------------|
B |-------------------------------------------------------------------------------------------------------| [2X]
F#|-------------------------------------------------------------------------------------------------------|
B |-0-15--0-0-15-15--0-14-14-0--12-12--0-8-8--0-3-2-0-15--0-0-15-15--0-14-14-0-8-(8X)-11-(8X)-------------|

(Richard and Michael)
"...A better man you'll ever be"
C#|---------------------------------------------------------------------|
G#|---------------------------------------------------------------------|
E |---------------------------------------------------------------------|
B |---------------------------------------------------------------------|
F#|--8----11-11---------------------------------------------------------|
B |--8----11-11---------------------------------------------------------|


Chorus:
(Richard)
C#|---------------------------------------------------------------------|       --------|
G#|---------------------------------------------------------------------|       --------|
E |---------------------------------------------------------------------|       --------|
B |---------------------------------------------------------------------| [2X]  --------|
F#|--8-(8X)--0-(8X)--10-(8X)--0-(8X)--8-(8X)--0-(8X)--10-(16X)----------|       --------|
B |--8-------0-------10-------0-------8-------0-------10----------------|       --3--2--|

(Michael guitar. If you listen carefully, or watch a live video, you'll find this riff)
C#|------------------------------------------------------------------------------------------------------|
G#|----------------------------------------------------------------------10-10-10-10-10-8-6--------------|
E |--7-7-7-7-9-10-9-7-7-9-10-9-7-7-7-7-7-7-7-7-9-10-9-7-7-9-10-9-7-7-7-7--------------------9-10-9-7-5---|
B |------------------------------------------------------------------------------------------------------|  [2X]
F#|------------------------------------------------------------------------------------------------------|
B |------------------------------------------------------------------------------------------------------|


2nd verse:
(Richard and Michael)
"I thought we were rid of you..."
C#|---------------------------------------------------------------------------------|
G#|---------------------------------------------------------------------------------|
E |---------------------------------------------------------------------------------|
B |---------------------------------------------------------------------------------|  [2X]
F#|---------------------------------------------------------------------------------|
B |-0-0---0-0--0-0-0-0-0-0---0-0--0-0-0-0-0-0---0-0--0-0-0-0-8--8-7--7-3------------|
PM  . .   . .  . . . . . .   . .  . . . . . .   . .  . . . .    .    .

"You can't run..."
C#|-------------------------------------------------------------|
G#|-------------------------------------------------------------|
E |-------------------------------------------------------------|
B |-------------------------------------------------------------|
F#|-------------------------------------------------------------|
B |--5-(16X)--8-(8X)--7-(8X)--0-(32X)--5-(16X)--8-(8X)--7-(8X)--|
PM   .        .       .       .        .        .       .

"The war's already won"
C#|-------------------------------------------------------------|
G#|-------------------------------------------------------------|
E |-------------------------------------------------------------|
B |-------------------------------------------------------------|
F#|-------------------------------------------------------------|
B |-0-0--0-0--0-0--0-0--0-0-0-0-0-0--0-0--0-0--0-0--0-0-0-0-----|
    . .  . .  . .  . .  . . . . . .  . .  . .  . .  . . . .

Repeat Chorus


Bridge:
(Richard and Michael)
"They say living well..."
C#|-----------------------------------|
G#|-----------------------------------|
E |-----------------------------------|
B |-----------------------------------|
F#|--0------8---5----0------8---------|
B |--0------8---5----0------8---------|

Try to figure out the breakdown, it's just 0s in the 6 string


Repeat Chorus

            
            
Suggest correction
Creating personal tab
Creating personal tab
You can edit any tab online and save it as your Personal.

You can edit, replace or remove any tab part or add personal notes – all changes will be seen only by you.

Personal tabs can be accessed anytime from any device, even offline.
Learn more »
Give kudos to tab author, rate the tab!
1 2 3 4 5
comments
print report bad tab
guest
You may want to rate the tab now too:
select rating
Wanna post a correction for this tab? Suggest correction