Oops, an error
Loading. Please wait.

Ass Back Home bass

by SECRETS
1,897 views 1 this week
no commentswrite comment
1 2 3 4 5
x 4
add to favorites
×
Save as Personal and add changes to this tab that will be seen only by you. Learn more ›
×
You can save this tab as Personal to edit and correct it or add notes. All changes will be seen only by you. Learn more »
launch autoscroll
font size
0
reset
guitar tuner
edit
Autoscroll
slow
fast
+/-
esc
set tempo
stop
-------------------------------------------------------------------------------
                             Ass Back Home - Secrets
-------------------------------------------------------------------------------
Tabbed by: Antoniyo55
E-mail: ajt350z@yahoo.com

Tuning: Drop D

guitar plays twice then bass comes in

Intro/ chorus
G|---------------------------------------------------------------------------|
D|---------------------------------------------------------------------------|x2
A|-6-6-6-6-6-6-6-6-----------------------------------------------------------|
D|------------------5-5-5-5-5-5-5-5---3-3-3-3-3-3-3-3------------------------|

verse pt.1
G|---------------------------------------------------------------------------|
D|---------------------------------------------------------------------------|x2
A|---------------------------------------------------------------------------|
D|-5-5-5-5-5---3-3-3-3-3----5-3---1-1-1-1-1---3-3-3-3-3----------------------|

verse
G|---------------------------------------------------------------------------|
D|---------------------------------------------------------------------------|x2
A|---------------------------------------------------------------------------|
D|-5-5-5-5-5-5-5-5-3-3-3-3-3-3-3-3-3-1-1-1-1-1-1-1-1-3-3-3-3-3-3-3-3---------|

guitar twice

Chorus
G|---------------------------------------------------------------------------|
D|---------------------------------------------------------------------------|
A|-6-6-6-6-6-6-6-6-----------------------------------------------------------|x2
D|------------------5-5-5-5-5-5-5-5---3-3-3-3-3-3-3-3------------------------|


verse pt.1
G|---------------------------------------------------------------------------|
D|---------------------------------------------------------------------------|x2
A|---------------------------------------------------------------------------|
D|-5-5-5-5-5---3-3-3-3-3----5-3---1-1-1-1-1---3-3-3-3-3----------------------|


Verse
G|---------------------------------------------------------------------------|
D|---------------------------------------------------------------------------|
A|---------------------------------------------------------------------------|
D|--5's (triplets)-3-3-3-3-3-----1's (triplets)-3-3-3-3-3--------------------|


G|---------------------------------------------------------------------------|
D|---------------------------------------------------------------------------|
A|---------------------------------------------------------------------------|
D|-5-5-5-5-5---3's (triplets)----1-1-1-1-1--3-3-3-3-3------------------------|


guitar plays once


Chorus
G|---------------------------------------------------------------------------|
D|---------------------------------------------------------------------------|
A|-6-6-6-6-6-6-6-6-----------------------------------------------------------|x2
D|------------------5-5-5-5-5-5-5-5---3-3-3-3-3-3-3-3------------------------|

Bridge pt.1
G|---------------------------------------------------------------------------|
D|---------------------------------------------------------------------------|
A|---6~~~~~------------------------------------------------------------------|x2
D|---------5~~~~~~---3~~~~~--------------------------------------------------|

Bridge pt.2 ( this part just play along to rythem they do it in)
G|---------------------------------------------------------------------------|
D|---------------------------------------------------------------------------|
A|--6------------------------------------------------------------------------|
D|-----5---3-----------------------------------------------------------------|

breakdown? (same thing go along with the rythem) till the end
G|---------------------------------------------------------------------------|
D|---------------------------------------------------------------------------|
A|-6-------------------------------------------------------------------------|
D|----5---3------------------------------------------------------------------|

as requested although i know im alittle off on the exact sound but I'm Pretty close 
(atleast I think so)

| /  slide up
| \  slide down
| h  hammer-on
| p  pull-off
| ~  vibrato
| +  harmonic
| x  Mute note
===============================================================================

            
            
Suggest correction
Creating personal tab
Creating personal tab
You can edit any tab online and save it as your Personal.

You can edit, replace or remove any tab part or add personal notes – all changes will be seen only by you.

Personal tabs can be accessed anytime from any device, even offline.
Learn more »
comments
print report bad tab
guest
You may want to rate the tab now too:
select rating
Wanna post a correction for this tab? Suggest correction