Oops, an error
Loading. Please wait.

Somewhere In Hiding bass

version 2
version 2

Whole song

  • The other bass tab didn't have anything except the... Show more

Interactive

by SECRETS
34 views 1 this week
1 commentread comment
1 2 3 4 5
3 more votes to show rating
add to favorites
×
Save as Personal and add changes to this tab that will be seen only by you. Learn more ›
×
You can save this tab as Personal to edit and correct it or add notes. All changes will be seen only by you. Learn more »
launch autoscroll
font size
0
reset
guitar tuner
edit
Autoscroll
slow
fast
+/-
esc
set tempo
stop
About this tab version
The other bass tab didn't have anything except the chorus. This tab has all parts. Was this info helpful? Yes No
[Intro]
F|---------------------------------------------------------------------------|
C|---------------------------------------------------------------------------|
G|---------------------------------------------------------------------------|
C|---0-0-0-0-0-0-0-0--3-3-3-3-3-3-3-3--8-8-8-8-8-8-8-8-8--3-3-3-3-2-2-2-2----|

F|---------------------------------------------------------------------------|
C|---------------------------------------------------------------------------|
G|---------------------------------------------------------------------------|
C|---0-0-0-0-0-0-0-0--3-3-3-3-3-3-3-3--8-8-8-8-8-8-8-8-8--8-8-8-8-7-7-7-7----|

[Verse]
F|---------------------------------------------------------------------------|
C|---------------------------------------------------------------------------|
G|---------------------------------------------------------------------------|
C|---0-0-0-0--0-0-0---3-3-3-3--3-3--5-5-5-5--5-5-5--8-8-8-8--7-7-------------| x2

F|------------------------------------------------------------------------------|
C|------------------------------------------------------------------------------|
G|------------------------------------------------------------------------------|
C|---0-0-0-0-0-0--0-0--0-0-0--0-0-0--0--0--0---0-0-0-0-0-0--0-0--0-0-0--0-0-0---| x2


[Chorus]
F|---------------------------------------------------------------------------|
C|---------------------------------------------------------------------------|
G|---------------------------------------------------------------------------|
C|---0-0-0-0-0-0-0-0--3-3-3-3-3-3-3-3--8-8-8-8-8-8-8-8-8--3-3-3-3-2-2-2-2----|

F|---------------------------------------------------------------------------|
C|---------------------------------------------------------------------------|
G|---------------------------------------------------------------------------|
C|---0-0-0-0-0-0-0-0--3-3-3-3-3-3-3-3--8-8-8-8-8-8-8-8-8--8-8-8-8-7-7-7-7----|

F|---------------------------------------------------------------------------|
C|---------------------------------------------------------------------------|
G|---------------------------------------------------------------------------|
C|---0-0-0-0-0-0-0-0--3-3-3-3-3-3-3-3--8-8-8-8-8-8-8-8-8--3-3-3-3-2-2-2-2----|

F|---------------------------------------------------------------------------------|
C|---------------------------------------------------------------------------------|
G|---------------------------------------------------------------------------------|
C|---0-0-0-0-0-0-0-0--3-3-3-3-3-3-3-3--8-8-8-8-8-8-8-8-8--8-8-8-8--10--10--10--10--|

[Verse]
F|----------------------------------------------------------------------------------------------------------|
C|----------------------------------------------------------------------------------------------------------|
G|----------------------------------------------------------------------------------------------------------|
C|---0--0--0-0-0-0-0---0-0--0--0--0--0-0-0---0-0-0---0-0-0---0--0--0-0-0-0-0---0--0--0-0-0---0-0-0---0-0-0--|

F|-----------------------------------------------------------------------------|
C|-----------------------------------------------------------------------------|
G|-----------------------------------------------------------------------------|
C|---0--0--0-0-0-0-0---0-0--0--0--0--0-0-0---0-0-0---0-0-0---0--0--0-0-0-0-0---|

F|-----------------------------------------------------------------------------------------------------------|
C|-----------------------------------------------------------------------------------------------------------|
G|-----------------------------------------------------------------------------------------------------------|
C|-0--0--0-0--0-0-----0--0--0-0--0-0-----0--0-0---0--0-0---0--0--0-0--0-0---0--0--0-0--0-0---0--0-0---0--0-0-|

[Chorus]
F|---------------------------------------------------------------------------|
C|---------------------------------------------------------------------------|
G|---------------------------------------------------------------------------|
C|---0-0-0-0-0-0-0-0--3-3-3-3-3-3-3-3--8-8-8-8-8-8-8-8-8--3-3-3-3-2-2-2-2----|

F|---------------------------------------------------------------------------|
C|---------------------------------------------------------------------------|
G|---------------------------------------------------------------------------|
C|---0-0-0-0-0-0-0-0--3-3-3-3-3-3-3-3--8-8-8-8-8-8-8-8-8--8-8-8-8-7-7-7-7----|

F|---------------------------------------------------------------------------|
C|---------------------------------------------------------------------------|
G|---------------------------------------------------------------------------|
C|---0-0-0-0-0-0-0-0--3-3-3-3-3-3-3-3--8-8-8-8-8-8-8-8-8--3-3-3-3-2-2-2-2----|

F|---------------------------------------------------------------------------------|
C|---------------------------------------------------------------------------------|
G|---------------------------------------------------------------------------------|
C|---0-0-0-0-0-0-0-0--3-3-3-3-3-3-3-3--8-8-8-8-8-8-8-8-8--8-8-8-8--10--10--10--10--|


F|--------------------|
C|--------------------|
G|--------------------|
C|---0-0-0-0-0-0-0----|

[Outro] x3
F|-------------------------------------------------------------------------------------------------|
C|-------------------------------------------------------------------------------------------------|
G|-------------------------------------------------------------------------------------------------|
C|---0-0-0-0-0-0-0---0-0-0-0-0-0-0----0-0-0-0-0-0-0--0-0-0-0-0-0-0----0-0-0-0-0-0-0-8-8-8-8-8-8-8--|

F|-------------------------------------------------|
C|-------------------------------------------------|
G|-------------------------------------------------|
C|---8-8-8-8-8-8-8-8-8-8-8-8-8-8--8-8-8-8-8-8-8----|

            
            
Suggest correction
Creating personal tab
Creating personal tab
You can edit any tab online and save it as your Personal.

You can edit, replace or remove any tab part or add personal notes – all changes will be seen only by you.

Personal tabs can be accessed anytime from any device, even offline.
Learn more »
Give kudos to tab author, rate the tab!
1 2 3 4 5
comments
print report bad tab
1 comment total.
0 reply
themortician91 123 Jan 25, 2017 08:34 PM

I wrote this tab and before it was approved it was changed and now that second breakdown is pretty much unreadable so here's the original

[Verse]

F|---------------------------------------------------------------------------|
C|---------------------------------------------------------------------------|
G|---------------------------------------------------------------------------|
C|---0-0-00000--00-0-0-0-000--000--000--0-0-00000--0-0-000--000--000---------|

F|---------------------------------------------------------------------------|
C|---------------------------------------------------------------------------|
G|---------------------------------------------------------------------------|
C|---0-0-00000--00-0-0-0-000--000--000--0-0-00000----------------------------|

F|---------------------------------------------------------------------------|
C|---------------------------------------------------------------------------|
G|---------------------------------------------------------------------------|
C|---0-0-00-00----0-0-00-00----0-00--0-00--0-0-00-00--0-0-00-00--0-00--0-00--|

guest
You may want to rate the tab now too:
select rating
Wanna post a correction for this tab? Suggest correction