Oops, an error
Loading. Please wait.

Dinosaur Dance Floor bass

612 views 1 this week
1 commentread comment
1 2 3 4 5
1 last vote to show rating
add to favorites
×
Save as Personal and add changes to this tab that will be seen only by you. Learn more ›
×
You can save this tab as Personal to edit and correct it or add notes. All changes will be seen only by you. Learn more »
launch autoscroll
font size
0
reset
guitar tuner
edit
Autoscroll
slow
fast
+/-
esc
set tempo
stop
Author
ARTIST: SECRETS OF KAPLAN
SONG: DINOSAUR DANCE FLOOR
ALBUM: THE EP

WWW.SECRETSOFKAPLAN.COM
WWW.YOUTUBE.COM/SECRETSOFKAPLAN



INTRO / VERSE

G|-------------------------------------------------|
D|-------------------------------------------------|
A|--------7-----7-7-7-7h9p7------------------------|
E|--9--9-----9--------------h9--5--55555-444--7-8--|

PRE CHORUS
 
G|----------------------------------------------------------------------------------------------------------|
D|----------------------------------------------------------------------------------------------------------|
A|----------------------------------------------------------------------------------------------------------|
E|--5--5--5--5--5--5--5--5--5--5--5--5--5--5--5--5--7--7--7--7--7--7--7--7--9--9--9--9--9--9--9--9--6--6--6-|

G|-----------------------|
D|-----------------------|
A|-----------------------|
E|--6--6--5--5--5--5--5--|

CHORUS
 
G|-----------------------------------------------------------------------------|
D|-----------------------------------------------------------------------------|
A|-----------------------------------------------------------------------------|
E|--9--9--9--9--9--9--9--9--9--9--9--9--9--9--8--8--8--12--12--12--11--11--11--|
 
G|----------------------------------------------------------------------------------------------------------|
D|----------------------------------------------------------------------------------------------------------|
A|----------------------------------------------------------------------------------------------------------|
E|--2--2--2--2--2--2--4--4--4--4--4--4--5--5--5--5--5--5--7--7--7--9--9--9--5--5--5--5--5--5--7--7--7--9--9-|
 
G|--------------------------|
D|--------------------------|
A|--3--2--1-----------------|
E|-----------3--2--1--0--0--|

VERSE
 
G|-------------------------------------------------|
D|-------------------------------------------------|
A|--------7-----7-7-7-7h9p7-----------------23-----|
E|--9--9-----9--------------h9--5--55555-444-------|

PRE CHORUS
 
G|----------------------------------------------------------------------------------------------------------|
D|----------------------------------------------------------------------------------------------------------|
A|----------------------------------------------------------------------------------------------------------|
E|--5--5--5--5--5--5--5--5--5--5--5--5--5--5--5--5--7--7--7--7--7--7--7--7--9--9--9--9--9--9--9--9--6--6--6-|

G|-----------------------|
D|-----------------------|
A|-----------------------|
E|--6--6--5--5--5--5--5--|

CHORUS
 
G|-------------------------------------------------------------------------------|
D|-------------------------------------------------------------------------------|
A|-------------------------------------------------------------------------------|
E|--9--9--9--9--9--9--9--9--9--9--9--9--9--9--8--8--8--12--12--12--11--11--11----|
 
G|----------------------------------------------------------------------------------------------------------|
D|----------------------------------------------------------------------------------------------------------|
A|----------------------------------------------------------------------------------------------------------|
E|--2--2--2--2--2--2--4--4--4--4--4--4--5--5--5--5--5--5--7--7--7--9--9--9--5--5--5--5--5--5--7--7--7--9--9-|
 
G|--------------------------------------------------------------------------------|
D|--------------------------------------------------------------------------------|
A|--3--2--1-----------------------------------------------------------------------|
E|-----------3--2--1--0--0--------------------------------------------------------|

 
 BRIDGE
 
G|--------------------------------------------------------------------------------|
D|--------------------------------------------------------------------------------|
A|--------------------------------------------------------------------------------|
E|--0-0-0--0-0-0--0-0-0--0-0-0--0-0-0-12---0-0-0-12----0-0-0-12----0-0-0-12-------|
 
 
G|--------------------------------------------------------------------------------|
D|--------------------------------------------------------------------------------|
A|----------10-------------10-------------10-------------10-----------------------|
E|-0-0-0-12-------0-0-0-12-------0-0-0-12-------0-0-0-12--------------------------|

G|--------------------------------------------------------------------------------|
D|--------------------------------------------------------------------------------|
A|-----------10---------------10---------------10---------------10----------------|
E|--0-0-0-12----12---0-0-0-12----12---0-0-0-12----12---0-0-0-12----12-------------|
 
G|--------------------------------------------------------------------------------|
D|--------------------------------------------------------------------------------|
A|----------10------------------10------------------10----------------------------|
E|-0-0-0-12----12-10---0-0-0-12----12-10---0-0-0-12----12-10---9-9-9-10-10--------|

G|--------------------------------------------------------------------------------|
D|--------------------------------------------------------------------------------|
A|----------10------------------10------------------10----------------------------|
E|-0-0-0-12----12-10---0-0-0-12----12-10---0-0-0-12----12-10---9-9-9-10-10--------|

G|--------------------------------------------------------------------------------|
D|--------------------------------------------------------------------------------|
A|----------10------------------10------------------10----------------------------|
E|-0-0-0-12----12-10---0-0-0-12----12-10---0-0-0-12----12-10---9-9-9-10-10-10-----|

HEAVY BIT X3

G|--------------------------------------------------------------------------------|
D|--------------------------------------------------------------------------------|
A|--------10-----------------10-----------------10--------------------------------|
E|-0-0-12----12-10----0-0-12----12-10----0-0-12----12-10---9--10------------------|

G|--------------------------------------------------------------------------------|
D|--------------------------------------------------------------------------------|
A|--------------------------------------------------------------------------------|
E|--0-----------------0------------------0------------------0-0-------------------|
Suggest correction
Creating personal tab
Creating personal tab
You can edit any tab online and save it as your Personal.

You can edit, replace or remove any tab part or add personal notes – all changes will be seen only by you.

Personal tabs can be accessed anytime from any device, even offline.
Learn more »
Give kudos to tab author, rate the tab!
1 2 3 4 5
comments
print report bad tab
1 comment total.
0 reply
sigurd5000 10 Feb 10, 2017 11:34 AM

thanks, been loking for something like this for a long time. i only have a guitar but it kinda works

guest
You may want to rate the tab now too:
select rating
Wanna post a correction for this tab? Suggest correction