Oops, an error
Loading. Please wait.

8 Dead 9 If You Count The Fetus Tab

version 1
version 1

Whole song

Interactive

3,192 views 1 this week
2 commentsread comments
1 2 3 4 5
excellent!
x 3
add to favorites
launch autoscroll
font size
0
reset
how to read this tab
guitar tuner
Tab Pro tools
  • play this tab
  • loop segment
  • change instrument
  • show fretboard
  • metronome
Autoscroll
slow
fast
+/-
esc
set tempo
stop
Contributor
Tuning
D A D G B E
Yeah.
Here's the text version.
I saw that someone wanted it.
Enjoy.
btw I just saved the file as an html one.


Gtr I (D A D G B E) - 'Untitled'


  Q=150
 4/4
  Gtr I
  PM----------------------------|
|------------------------------------|
|------------------------------------|
|------------------------------------|
|-2-3-2-3-2-3-2-3-2-3-2-3-2-3-2-3----|
|-1-2-1-2-1-2-1-2-1-2-1-2-1-2-1-2----|
|-2-3-2-3-2-3-2-3-2-3-2-3-2-3-2-3----|


  Gtr I
                                                                              PM
|------------------------------------------------------!10h14-^10-------------------|
|---------------------------!7h12-^7---------------!11------------^11---------------|
|-------!5h9-!5----------!8----------^8--------!11--------------------^11-----------|
|----!6---------^6----!9----------------^9-!12----------------------------^12-0-----|
|-!7---------------^7---------------------------------------------------------0-----|
|-----------------------------------------------------------------------------0-----|


  Gtr I
|-11-11-11-11-11-11-11-11-11-11-11-11-11-11-11-11----|
|-15-15-15-15-15-15-15-15-15-15-15-15-15-15-15-15----|
|-13-13-13-13-13-13-13-13-13-13-13-13-13-13-13-13----|
|-12-12-12-12-12-12-12-12-12-12-12-12-12-12-12-12----|
|----------------------------------------------------|
|----------------------------------------------------|


  Gtr I
   TP TP TP TP TP TP TP TP TP TP TP TP TP TP TP TP TP TP TP TP TP TP TP TP TP TP TP TP TP TP
|----------------------------------------------------------------------------------------------|
|-17-17-17-17-18-18-18-18-19-19-19-19-20-20-20-20-17-17-17-17-18-18-18-18-19-19-19-19-20-20----|
|-15-15-15-15-16-16-16-16-17-17-17-17-18-18-18-18-15-15-15-15-16-16-16-16-17-17-17-17-18-18----|
|-14-14-14-14-15-15-15-15-16-16-16-16-17-17-17-17-14-14-14-14-15-15-15-15-16-16-16-16-17-17----|
|-12-12-12-12-13-13-13-13-14-14-14-14-15-15-15-15-12-12-12-12-13-13-13-13-14-14-14-14-15-15----|
|----------------------------------------------------------------------------------------------|


  Gtr I
|-8-8-8-8------------------------------------------------------------------|
|--------------------------------------------------------------------------|
|-6-6-6-6---------------------------------------10h13-------11h14----------|
|---------------------------8h11------9h12------------10h13-------11h14----|
|-5-5-5-5-6h9-----7h10-----------8h11------9h12----------------------------|
|-------------6h9------7h10------------------------------------------------|


  Gtr I
   TP TP TP TP TP TP TP TP
|----------------------------|
|----------------------------|
|----------------------------|
|-12-12-12s11-11-11s10-10----|
|-15-15-15-14-14-14-13-13----|
|-12-12-12-11-11-11-10-10----|


  Gtr I
                                                                                ~~
|-12-12-12---------------------------------------------------------------------------|
|------------------------------------------------------------------------------------|
|-10-10-10---------------------------------------10h13---------11h14-----------------|
|----------------------------8h11------9h12-------------10h13---------11h14p11s15----|
|--9--9--9-6h9-----7h10-----------8h11------9h12-------------------------------------|
|--------------6h9------7h10---------------------------------------------------------|


  Q=160
  Gtr I
|--------------------------------------------------------------|
|-10s===2s===10s===2s===10s===2s===10-10-10-10s13-13-13-13-----|
|-13----5----13----5----13----5----13-13-13-13-16-16-16-16-----|
|-10----2----10----2----10----2----10-10-10-10-13-13-13-13-----|
|-12----4----12----4----12----4----12-12-12-12-15-15-15-15\----|
|--------------------------------------------------------------|


  Q=190
  Gtr I
|----------------------------------------------------|
|----------------------------------------------------|
|----------------------------------------------------|
|----------------------------------------------------|
|---------2-----------3-----------4-----------5------|
|-0-1-4-0---3-0-1-4-0---4-0-1-4-0---5-0-1-4-0---6----|


  Gtr I
  PM------|
|-----------<19>----------*|
|-----------<19>----------*|
|-----------<19>----------*|
|-0-0-0-0-0------<17>-----*|
|-0-0-0-0-0------<17>-----*|
|-0-0-0-0-0------<17>\----*|


  Gtr I
                                                      PM--------|
|-----------------|-----------------|--------------------------------|
|-----------------|-----------------|--------------------------------|
|-----------------|-----------------|--------------------------------|
|-----------------|-----------------|-----------------0-0-0-0-0-1----|
|---------2-------|-----3-----------|-4-----------5---0-0-0-0-0-1----|
|-0-1-4-0---3-0-1-|-4-0---4-0-1-4-0-|---5-0-1-4-0---6-0-0-0-0-0-0----|


  Q=180
  Gtr I
  PM------------------------|
|--------------------------------|
|--------------------------------|
|--------------------------------|
|-3-2-1-4-3-2-1-3-2-1-5-4-3-2----|
|-6-5-4-7-6-5-4-6-5-4-8-7-6-5----|
|-3-2-1-4-3-2-1-3-2-1-5-4-3-2----|


  Gtr I
  PM--------------------------|
|---------------|------------------|
|---------------|------------------|
|---------------|------------------|
|-3-2-1-4-3-2-1-|-3-2-1-5-4-3-2----|
|-6-5-4-7-6-5-4-|-6-5-4-8-7-6-5----|
|-3-2-1-4-3-2-1-|-3-2-1-5-4-3-2----|


  Gtr I
|------------------------------------------|
|------------------------------------------|
|------------------------------------------|
|-3-3-3-4-4-4-3-3-3-------7-7-7-6-6-6------|
|-2-2-2-3-3-3-2-2-2-------6-6-6-5-5-5------|
|-1-1-1-2-2-2-1-1-1-------5-5-5-4-4-4------|


  Gtr I
                              \1.5
|---------------------------|---------|
|---------------------------|---------|
|---------------------------|---------|
|-3-3-3-4-4-4-3-3-3---------|---------|
|-2-2-2-3-3-3-2-2-2---------|---------|
|-1-1-1-2-2-2-1-1-1---------|-0-------|


  Q=170
  Gtr I
|----------------------------------------------------|
|-16-16-16-16-16-16-16-16-13-13-13-13-13-13-13-13----|
|-13-13-13-13-13-13-13-13-16-16-16-16-16-16-16-16----|
|-13-13-13-13-13-13-13-13-13-13-13-13-13-13-13-13----|
|-15-15-15-15-15-15-15-15-15-15-15-15-15-15-15-15----|
|----------------------------------------------------|


  Gtr I
                           ~~
|-------------------------------------|----|
|-16-16-16-16-16-16-16-16-13----(13)--|----|
|-13-13-13-13-13-13-13-13-16----(16)--|----|
|-13-13-13-13-13-13-13-13-13----(13)--|----|
|-15-15-15-15-15-15-15-15-15----(15)\-|----|
|-------------------------------------|----|


  Q=200
  Gtr I
  PM-------------------|
|-----------------------------|
|------------------------3----|
|-----------------------------|
|-0-0-0--0-0-0---0-0-0-0------|
|-0-0-0--0-0-0---0-0-0-0------|
|-1-1-1--1-1-1---1-1-1-1------|


  Gtr I
  PM--|  PM--|  PM------|  PM--|  PM--|  PM----|
|-------------------------------------------------------|
|-------------------------------------------------------|
|-------------------------------------------------------|
|-0-0-0--0-0-0--0-0-0-0-0--0-0-0--0-0-0--0-0-0-0--------|
|-0-0-0--0-0-0--0-0-0-0-0--0-0-0--0-0-0--0-0-0-0--------|
|-1-1-1--1-1-1--1-1-1-1-1--1-1-1--1-1-1--1-1-1-1-[2]----|


  Gtr I
  PM--|  PM--|     PM------|  PM----|  PM--|   PM------|
|----------------|----------------|--------------|--------------|
|----------------|----------------|--------------|--------------|
|----------------|----------------|--------------|--------------|
|-0-0-0--0-0-0---|-0-0-0-0-0--0-0-|-0--0-0-0---0-|-0-0-0--------|
|-0-0-0--0-0-0---|-0-0-0-0-0--0-0-|-0--0-0-0---0-|-0-0-0--------|
|-1-1-1--1-1-1---|-1-1-1-1-1--1-1-|-1--1-1-1---1-|-1-1-1-[2]----|


  Gtr I
  PM--|  PM--|     PM------|  PM----|  PM--|   PM------|
|----------------|----------------|--------------|--------------|
|----------------|----------------|--------------|--------------|
|----------------|----------------|--------------|--------------|
|-0-0-0--0-0-0---|-0-0-0-0-0--0-0-|-0--0-0-0---0-|-0-0-0--------|
|-0-0-0--0-0-0---|-0-0-0-0-0--0-0-|-0--0-0-0---0-|-0-0-0--------|
|-1-1-1--1-1-1---|-1-1-1-1-1--1-1-|-1--1-1-1---1-|-1-1-1-[2]----|


  Gtr I
  PM--|  PM--|     PM------|  PM----|  PM--|   PM--------|
|----------------|----------------|--------------|------------|
|----------------|----------------|--------------|------------|
|----------------|----------------|--------------|------------|
|-0-0-0--0-0-0---|-0-0-0-0-0--0-0-|-0--0-0-0---0-|-0-0-0-0----|
|-0-0-0--0-0-0---|-0-0-0-0-0--0-0-|-0--0-0-0---0-|-0-0-0-0----|
|-1-1-1--1-1-1---|-1-1-1-1-1--1-1-|-1--1-1-1---1-|-1-1-1-1----|




----------------------------------------------------------------------------
comments
We did not receive enough feedback on this tab! Please rate:
print report bad tab
1 2 3 4 5
2 comments total.
+1 reply
deaththrashcore wrote on June 10 2007, 06:33 pm

This is an awesome tab.

+1 reply
mynameispoop123 wrote on July 28 2007, 10:41 pm

sweet tab.
you should do Here, take this pill.

I want to post or [tab]
guest
You may want to rate the tab now too:
select rating
Please do not post tabs as comments. Select "correction" instead!