Oops, an error
Loading. Please wait.

Honey Ive Never Had Sex That Wasnt Awkward Tab

4,007 views 1 this week
3 commentsread comments
1 2 3 4 5
x 3
add to favorites
launch autoscroll
font size
0
reset
how to read this tab
guitar tuner
Autoscroll
slow
fast
+/-
esc
set tempo
stop
Help us to improve Ultimate-Guitar.com Take our survey!
×
Author
Tuning
D A D G B E
I didnt tab this its from there myspace so its 100% right


honey, i've never had sex that wasn't awkward

tuned in drop D

E  :3-3-3-3-3-3-3-3-|-----------------|
B  :2-2-2-2-2-2-2-2-|-----------------|
G  :0-0-0-0-0-0-0-0-|-----------------|
D  :3-3-3-3-3-3-3-3-|-----------------|
A  :2-2-2-2-2-2-2-2-|---------------0-|
D  :----------------|0w-------------0-|

   so my friend
E  :----------------|
B  :----------------|
G  :----------------|
D  :----------------|
A  :----------------|
D  :----------------|

       p m - - - ]  ph  p m - - - ]    p m - - - ] ph   p m - - - ]
E  :-------------------------------|-------------------------------|
B  :-------------------------------|-------------------------------|
G  :---------------<3>-------------|---------------<3>-------------|
D  :4--6-5-6-5-6-5------6-5-6-5-6-5|4--6-5-6-5-6-5------6-5-6-5-6-5|
A  :0--0-0-0-0-0-0------0-0-0-0-0-0|0--0-0-0-0-0-0------0-0-0-0-0-0|
D  :1--3-2-3-2-3-2------3-2-3-2-3-2|1--3-2-3-2-3-2------3-2-3-2-3-2|

       p m - - - ] ph   p m - - - ]
E  :-------------------------------|-------------------3-h7-t12\-|
B  :-------------------------------|-----------------5-----------|
G  :---------------<3>-------------|---------------4-------------|
D  :4--6-5-6-5-6-5------6-5-6-5-6-5|-------------5---------------|
A  :0--0-0-0-0-0-0------0-0-0-0-0-0|-----12\---7-----------------|
D  :1--3-2-3-2-3-2------3-2-3-2-3-2|3/---------------------------|

       p m - - - ] ph   p m - - - ]    p m - - - ] ph   p m - - - ]
E  :-------------------------------|-------------------------------|
B  :-------------------------------|-------------------------------|
G  :---------------<3>-------------|---------------<3>-------------|
D  :4--6-5-6-5-6-5------6-5-6-5-6-5|4--6-5-6-5-6-5------6-5-6-5-6-5|
A  :0--0-0-0-0-0-0------0-0-0-0-0-0|0--0-0-0-0-0-0------0-0-0-0-0-0|
D  :1--3-2-3-2-3-2------3-2-3-2-3-2|1--3-2-3-2-3-2------3-2-3-2-3-2|

       p m - - - ] ph   p m - - - ]
E  :-------------------------------|
B  :-------------------------------|
G  :---------------<3>-------------|
D  :4--6-5-6-5-6-5------6-5-6-5-6-5|
A  :0--0-0-0-0-0-0------0-0-0-0-0-0|
D  :1--3-2-3-2-3-2------3-2-3-2-3-2|

    p m - - - - - - - - ]
E  :---------------------------------------------------------------------|
B  :--------------------------------------------9-h12-t15-p12-p9-/11-h14-|
G  :----------------------------4-5-7-9-7-5-7-9--------------------------|
D  :----------------------4-5-7------------------------------------------|
A  :------2-3-5-7-5-3-5-7------------------------------------------------|
D  :2-3-5----------------------------------------------------------------|


E  :--------------------------------------------|
B  :t17-p14-11-/15-h18-t20-p18-p15-p0w----------|
G  :--------------------------------------------|
D  :--------------------------------------------|
A  :--------------------------------------------|
D  :--------------------------------------------|

   t r e m   p i c k   t h e s e   c h o r d s --------------------------|            pm
E  :-------------------------------------------------------|-------------|
B  :0-0-0-0-0-0-0-0-0-0-0-0-0-0-0-0-0-0-0-0-0--------------|-------------|
G  :3-2-5-4-2-3-4-5-4-7-6-4-5-6-7-6-9-8-6-7-8-4/---------19|19w----------|
D  :2-1-4-3-1-2-3-3-2-6-5-3-4-5-6-5-8-7-5-6-7-3/---------18|18w-------0--|
A  :3-2-5-4-2-3-4-5-4-7-6-4-5-6-7-6-9-8-6-7-8-2/---------17|----------0--|
D  :------------------------------------------2/---------17|----------0--|


                pm              pm              pm              pm  p m - ] nh
E  :---------------------------------------------------------------------------|
B  :0-0-0-0-0-0-----0-0-0-0-0-0-----0-0-0-0-0-0-----0-0-0-0-0-0-------------<4>|
G  :5-5-5-5-5-5-----5-5-5-5-5-5-----5-5-5-5-5-5-----5-5-5-5-5-5-------------<4>|
D  :2-2-2-2-2-2-0---2-2-2-2-2-2-0---2-2-2-2-2-2-0---2-2-2-2-2-2-0-----------<4>|
A  :1-1-1-1-1-1-0---1-1-1-1-1-1-0---1-1-1-1-1-1-0---1-1-1-1-1-1-0---1-1-1-1----|
E  :------------0---------------0---------------0---------------0---2-2-2-2----|


                                       [--use whammy bar for tremolo effect----------------|
E  :---------------------------------------------------------------------------------------|
B  :---------------------------------------------------------------------------------------|
G  :4-4-4-4-4-4-3-3-3-3-3-3-2-2-2-2-2-2-2-h3-h5-p3-p2--------------------------------------|
D  :6-6-6-6-6-6-5-5-5-5-5-5-4-4-4-4-4-4---------------h5-p2-h3-h5-p3-p2--------------------|
A  :3-3-3-3-3-3-2-2-2-2-2-2-1-1-1-1-1-1---------------------------------h5-p2-h3-h5-p3-p2--|
E  :5-5-5-5-5-5-4-4-4-4-4-4-3-3-3-3-3-3----------------------------------------------------|


                                        nh----------------|
E  :------------------------------------------------------|
B  :------------------------------------<6>---------------|
G  :4-4-4-4-4-4-3-3-3-3-3-3-2-2-2-2-2-2-<6>-<5><5><5>-----|
D  :6-6-6-6-6-6-5-5-5-5-5-5-4-4-4-4-4-4-----<5><5><5>-----|
A  :3-3-3-3-3-3-2-2-2-2-2-2-1-1-1-1-1-1--------------<5>|-|
E  :5-5-5-5-5-5-4-4-4-4-4-4-3-3-3-3-3-3-------------------|

                                       [-use whammy bar for tremolo effect-----------------|
E  :---------------------------------------------------------------------------------------|
B  :---------------------------------------------------------------------------------------|
G  :4-4-4-4-4-4-3-3-3-3-3-3-2-2-2-2-2-2-2-h3-h5-p3-p2--------------------------------------|
D  :6-6-6-6-6-6-5-5-5-5-5-5-4-4-4-4-4-4---------------h5-p2-h3-h5-p3-p2--------------------|
A  :3-3-3-3-3-3-2-2-2-2-2-2-1-1-1-1-1-1---------------------------------h5-p2-h3-h5-p3-p2--|
E  :5-5-5-5-5-5-4-4-4-4-4-4-3-3-3-3-3-3----------------------------------------------------|


E  :--------------------------------------------------------------------|
B  :--------------------------------------------------------------------|
G  :--------------------------------------------------------------------|
D  :--------------------------------------------------------------------|
A  :--------------------------------------------------------------------|
E  :3-h6-p3-h6-p3-h6-p3-h6-2-h4-p2-h4-p2-h4-p2-h4-1-h2-p1-h2-p1-h2-p1-h2|


E  :-----------------------------|
B  :-----------------------------|
G  :-----------------------------|
D  :4--4--4--4-4-4-4--4--4--4----|
A  :0--0--0--0-0-0-0--0--0--0----|
E  :1--1--1--1-1-1-1--1--1--1----|

    pm----------------------]     pm----------------------------------------|             ph
E  :-----------------------------|------------------------------------------|
B  :-----------------------------|------------------------------------------|
G  :-----------------------------|------------------------------------------|
D  :4--4--4--4-4-4-4--4--4--4----|4--4--4--4-4-4-4--4--4--4-----------------|
A  :0--0--0--0-0-0-0--0--0--0----|0--0--0--0-0-0-0--0--0--0-----------------|
E  :1--1--1--1-1-1-1--1--1--1----|1--1--1--1-1-1-1--1--1--1-1-h2-p1-h2-<2>--|

    pm----------------------]     pm-------------------------------|
E  :-----------------------------|---------------------------------|
B  :-----------------------------|---------------------------------|
G  :-----------------------------|---------------------------------|
D  :4--4--4--4-4-4-4--4--4--4----|4--4--4--4-4-4-4--4--4--4--0-----|
A  :0--0--0--0-0-0-0--0--0--0----|0--0--0--0-0-0-0--0--0--0--0-----|
E  :1--1--1--1-1-1-1--1--1--1----|1--1--1--1-1-1-1--1--1--1--0-----|

                pm-----]             pm
E  :------------------------------------- 3|
B  :------------------------------------- ||
G  :-------------------------------------*||
D  :---------------------------------1---*||
A  :---------------------------------1--- ||
E  :1b--1b--1b--0-0-0-0--1b--1b--1b--0--- ||
                                    pm--]
E  :----------------------------------------|
B  :----------------------------------------|
G  :----------------------------------------|
D  :--------------------------------1--1--1-|
A  :--------------------------------1--1--1-|
E  :1b--1b--1b--0-0-0-0-1b--1b--1b--0--0--0-|
Suggest correction
Give kudos to tab author, rate the tab!
1 2 3 4 5
comments
print report bad tab
3 comments total.
0 reply
deaththrashcore 426 Jul 16, 2007 02:48 PM

Good job getting it from them thanks.

0 reply
rockonmetal83 283 Aug 21, 2007 06:38 PM

damn it.
i wanted to do this first.

0 reply
xXBMTHXx 10 Dec 06, 2007 07:19 PM

Hey Everyone notice he tunes up to standard tuning about half way through. Donno if thats a typo or not though.

guest
You may want to rate the tab now too:
select rating
Wanna post a correction for this tab? Suggest correction