Oops, an error
Loading. Please wait.

Paraphilia Tab

version 1
version 1

Intro

Whole song

Interactive

542 views 1 this week
2 commentsread comments
1 2 3 4 5
1 last vote to show rating
add to favorites
launch autoscroll
font size
0
reset
how to read this tab
guitar tuner
Autoscroll
slow
fast
+/-
esc
set tempo
stop
Help us to improve Ultimate-Guitar.com Take our survey!
×
Author
Ok This Is My Very First Tab Its Not The Best But I Haven't Seen Any Tabs Yet So 
Please Go Easy LOL


E|---------------------------------------------------------|Repeat
B|---------------------------------------------------------|
G|-------------5--4--5--0--------5---4---5-----------------|
D|---- --0----7--7--7--7------7----7---7---7--0------------|
A|------ 0-------------------------------------------------|
D|----0--0------------------0----------------------0-------|
Suggest correction
Give kudos to tab author, rate the tab!
1 2 3 4 5
comments
print report bad tab
2 comments total.
0 reply
dtemfy 10 Mar 24, 2009 09:44 PM

Ha Easy But It Sounds Like It lol

0 reply
dylann 135 Jan 11, 2010 10:17 PM

omg how could you screw this one up :P haha nah i see its your first tab

but its like ment to be

|---------------------
|------5---4----5-----
|----7---7----7---7---
|---------------------
|-0-----------------0-

guest
You may want to rate the tab now too:
select rating
Wanna post a correction for this tab? Suggest correction