Oops, an error
Loading. Please wait.

Breathe intro tab

version 1
version 1

Intro

by Seeb
2,683 views 27 this week
1 commentread comment
1 2 3 4 5
x 6
add to favorites
×
Save as Personal and add changes to this tab that will be seen only by you. Learn more ›
×
You can save this tab as Personal to edit and correct it or add notes. All changes will be seen only by you. Learn more »
launch autoscroll
font size
0
reset
how to read this tab
guitar tuner
edit
Autoscroll
slow
fast
+/-
esc
set tempo
stop
This is how I play it. The capo makes it a lot easier

Tuning: Standard
Capo: 3rd fret


[Intro]

  1 2 3 4 5 6 7 8  1 2 3 4 5 6 7 8  1 2 3 4 5 6 7 8  1 2 3 4 5 6 7 8 
e|----------------|----------------|----------------|----------------|
B|------0---------|------3---------|------5--^5-----|---^5------^7---|
G|----------0-----|----------0-----|---------^5-----|---^5------^7---|
D|----------------|----------------|---------^5-----|---^5------^7---|
A|----------------|--------0---2---|3---------------|3-------5-------|
E|0---------------|3---------------|----------------|----------------|

            
            
Suggest correction
Creating personal tab
Creating personal tab
You can edit any tab online and save it as your Personal.

You can edit, replace or remove any tab part or add personal notes – all changes will be seen only by you.

Personal tabs can be accessed anytime from any device, even offline.
Learn more »
comments
print report bad tab
1 comment total.
-1 reply
pennabob123 26 Jan 19, 2017 10:34 AM

I created this version here, it's not 100% accurate, but imo kinda close to the original live version by Neev :)

1 2 3 4 5 6 7 8 1 2 3 4 5 6 7 8 1 2 3 4 5 6 7 8 1 2 3 4 5 6 7 8
e|----------------|----------------|----------------|----------------|
B|------0---------|--------3-------|--------3-------|------3---------|
G|---------0------|-----0----0-----|-----0----0-----|---0----0-------|
D|---2-------2----|------------0---|------------0---|-----------0----|
A|----------------|----------------|1~3-------------|3---------------|
E|0---------------|1~3-------------|----------------|----------------|

1 2 3 4 5 6 7 8 1 2 3 4 5 6 7 8 1 2 3 4 5 6 7 8 1 2 3 4 5 6 7 8
e|----------------|----------------|----------------|----------------|
B|------0---------|--------3-------|--------3-------|----^5-----^7---|
G|---------0------|-----0----0-----|-----0----0-----|----^5-----^7---|
D|---2-------2----|------------0---|------------0---|----^5-----^7---|
A|----------------|----------------|1~3-------------|3-------5-------|
E|0---------------|1~3-------------|----------------|----------------

guest
You may want to rate the tab now too:
select rating
Wanna post a correction for this tab? Suggest correction