Oops, an error
Loading. Please wait.

Because Of Me Bass Tab

version 1
version 1

Whole song

Interactive

1,641 views 3 this week
3 commentsread comments
1 2 3 4 5
worth learning
x 4
add to favorites
launch autoscroll
font size
0
reset
guitar tuner
Tab Pro tools
  • play this tab
  • loop segment
  • change instrument
  • show fretboard
  • metronome
Autoscroll
slow
fast
+/-
esc
set tempo
stop
Difficulty
novice
Drop D, half step down tuning

Right after intro
---------|
---------|
---------|
--0-3-3--|


post intro
----------------------------------------------|
----------------------------------------------|
---------3---------3-----3---------3----------|
-0h2-0h2---0h2-0h2---0h2---0h2-0h2--0h2-0-2-3-|

verse
-------------------------------|
-------------------------------|
-------------------------------|
-2---2-2-3-2------2---2-2-3-2--|

"My philosophy..."
---------------------------------|
---------------------------------|
---------------------------------|
-2-2-2--2-2-2----2-2-2--2-2-2--3-|

"Do you Believe in love..."
-------------------------------|
-------------------------------|
-------------------------------|
-2---2-2-3-2------2---2-2-3-2--|


Chorus
--------------------------------------|
--------------------------------------|
--------------------------------------|
-2-0-2-0-2-0--10-10--5-5-7-5----------|

Post Chorus
----------------------------------------------|
----------------------------------------------|
----------------------------------------------|
-0h2-0h2---0h2-0h2---0h2---0h2-0h2--0h2-0-2-3-|


Solo
----------------------------------------------|
----------------------------------------------|
-------3-------3---------------3-------3------|
-5p4p3---5p4p3----4--4---5p4p3---5p4p3---4-4--|


Outro
Solo
----------------------------------------------|
----------------------------------------------|
-------3-------3---------------3-------3------|
-5p4p3---5p4p3----4--4---5p4p3---5p4p3---4-4--|

----------------------------------------------|
----------------------------------------------|
-------3-------3---------------3-------3------|
-5p4p3---5p4p3----4--4---5p4p3---5p4p3---2-2--|


Easy song, but a great one... Enjoy!
comments
print report bad tab
3 comments total.
0 reply
peavey-milenium wrote on January 7 2006, 03:46 pm

too basic, put in order with song, put tempo

0 reply
Fender_J wrote on June 3 2006, 03:10 am

Good tab... only one little thing about the chorus:

--------------------------------------|
--------------------------------------|
--------------------------------------|
-2-0-2-0-2-0--10-10--5-5-5h7h5p0------|

0 reply
afmbassist2288 wrote on October 30 2006, 02:14 pm

Fender_J is oh so correcto...

I want to post or [tab]
guest
You may want to rate the tab now too:
select rating
Please do not post tabs as comments. Select "correction" instead!