Oops, an error
Loading. Please wait.

Because Of Me Tab

version 3
version 3

Whole song

Interactive

1,281 views 3 this week
no commentswrite comment
1 2 3 4 5
please rate
add to favorites
launch autoscroll
font size
0
reset
how to read this tab
guitar tuner
Autoscroll
slow
fast
+/-
esc
set tempo
stop
Help us to improve Ultimate-Guitar.com Take our survey!
×
Author
con job 529
Song: Because Of Me
Artist: Seether
Album: Karma And Effect

Tuning: Drop D, 1/2 step down (i.e Db Ab Db Gb Bb Eb)
Parts: Guitar 1, Guitar 2

*=Harmonic  P.M|- - - - = Palm Mute
b=Bend      ~=hold note

Intro:
Gtr 1
Eb|----------------------------------------------------------|
Bb|----------------------------------------------------------|
Gb|----------------------------------------------------------|
Db|--------------------------------------------0---2--3~-----|
Ab|--------3-----------3------3----------3-----0---2--3~-----|
Db|0-2-0-2-----0-2-0-2----0-2----0-2-0-2-----0-0---2--3~-----|

                                             P.M|- - - -
Eb|----------------------------------------------------------|
Bb|----------------------------------------------------------|
Gb|----------------------------------------------------------|
Db|--------------------------------------------0-0---0-------|
Ab|--------3-----------3------3----------3-----0-0---0-------|
Db|0-2-0-2-----0-2-0-2----0-2----0-2-0-2-----0-0-0---0-------|

   Band enters (Gtr 1+2)
Eb|----------------------------------------------------------|
Bb|----------------------------------------------------------|
Gb|----------------------------------------------------------|   x2
Db|--------------------------------------------0---2--3~-----|
Ab|--------3-----------3------3----------3-----0---2--3~-----|
Db|0-2-0-2-----0-2-0-2----0-2----0-2-0-2-----0-0---2--3~-----|


Eb|----------------------------------------------------------|
Bb|----------------------------------------------------------|
Gb|---------5*---------5*----------------5*------------------|   x2
Db|---------------------------5*---------------0---2--3~-----|
Ab|--------------------------------------------0---2--3~-----|
Db|0-2-0-2-----0-2-0-2----0-2----0-2-0-2-----0-0---2--3~-----|

Verse:
Gtr.1
Eb|---------------------------|
Bb|---------------------------|
Gb|---------------------------|
Db|-2~-------------------xx-3-| x2
Ab|-2~-------------------xx-3-|
Db|-2~-------------------xx-3-|

Gtr.2  let ring
Eb|-----0~--------------------|
Bb|--------0~-----------------|
Gb|---------------------------|
Db|---------------------------| x2
Ab|---------------------------|
Db|---------------------------|

("my philosophy is things....")
Gtr.1
Eb|-------------------------------|
Bb|-------------------------------|
Gb|-------------------------------|
Db|-2222-22222-----2222-22222---3-| x2
Ab|-2222-22222-----2222-22222---3-|
Db|-2222-22222-----2222-22222---3-|

Gtr. 2
Eb|--------------------------------|
Bb|--------------------------------|
Gb|-4444-44444-----4444-44444---5--|
Db|-2222-22222-----2222-22222---3--| x2
Ab|--------------------------------|
Db|--------------------------------|

Pre-Chorus:
Gtr.1
Eb|---------------------------|
Bb|---------------------------|
Gb|---------------------------|
Db|-2~------------2------xx-3-| x2
Ab|-2~------------2------xx-3-|
Db|-2~------------2------xx-3-|


Gtr.2  let ring
Eb|-----0~-----------0~-------|
Bb|--------0~----------0~-----|
Gb|---------------------------|
Db|---------------------------| x2
Ab|---------------------------|
Db|---------------------------|

Chorus:
Eb|--------------------------------------------|
Bb|--------------------------------------------|
Gb|--------------------------------------------|
Db|--------------------------------------------| X4
Ab|-2---0--2---0--2-0--10--10---5--5--5-7-5-3--|
Db|-2---0--2---0--2-0--10--10---5--5--5-7-5-3--|

After that is played two times, a second line comes in to accompany that:
Gtr. 2
Eb|--------------------------------------------|
Bb|--------------------------------------------|
Gb|-4---2--4---2--4-2--7---7----0--0----0------|
Db|-2---0--2---0--2-0--5---5----0--0----0------|X2
Ab|--------------------------------------------|
Db|--------------------------------------------|

Then play the whole intro and verse again, its exactly the same thing, and then the chorus.

Bridge:
Eb|------------------------------------------------|
Bb|------------------------------------------------|
Gb|------------------------------------------------|
Db|-----------------------------4--4---------------|
Ab|----------7-----------7------4--4---------------|
Db|---6-5-0--8--(0)6-5-0-8--(0)-4--4---------------|

That's played all throughout the  bridge, along with some screamy, evil guitar line that 
wont attempt to write out!!

That's it. Any suggestions or corrections just leave a comment
Suggest correction new What's this?
You can suggest a correction to this tab. Community and Mods will review your correction and vote to approve or reject it.
comments
We did not receive enough feedback on this tab! Please rate:
print report bad tab
1 2 3 4 5
guest
You may want to rate the tab now too:
select rating
Please do not post tabs as comments. Select "correction" instead!