Oops, an error
Loading. Please wait.

Because Of Me tab

version 4
version 4

Whole song

Interactive

by Seether
205 views 1 this week
3 commentsread comments
1 2 3 4 5
1 last vote to show rating
add to favorites
×
Save as Personal and add changes to this tab that will be seen only by you. Learn more ›
×
You can save this tab as Personal to edit and correct it or add notes. All changes will be seen only by you. Learn more »
launch autoscroll
font size
0
reset
how to read this tab
guitar tuner
edit
Autoscroll
slow
fast
+/-
esc
set tempo
stop
-------------------------------------------------------------------------------
                             Seether - Because of Me
-------------------------------------------------------------------------------
Tabbed by: Diesel
E-mail: daughtryfan497@gmail.com

Tuning: Drop C# (Drop Db)

                           Intro

e|-----------------------------------------------------------------------------|
B|-----------------------------------------------------------------------------|
G|-----------------------------------------------------------------------------|
D|------------------------------------------3----------------------------------|
A|----------3---------3----3---------3---22-3----------------------------------|
E|--0h2-0h2---0h2-0h2---0h2---0h2-0h2-2--22-3----------------------------------|
                                         **
e|-----------------------------------------------------------------------------|
B|-----------------------------------------------------------------------------|
G|-----------------------------------------------------------------------------|
D|-----------------------------------------------------------------------------|
A|--------3--------3----3----------3----00-0-----------------------------------|
E|-0h2-0h2--0h2-0h2--0h2---0h2-0h2---2--00-0-----------------------------------|
                                        ** *
                              Main Riff

e|-----------------------------------------------------------------------------|
B|-----------------------------------------------------------------------------|
G|-----------------------------------------------------------------------------|
D|---------------------------------------3-------------------------------------|
A|--------3--------3----3---------3---22-3-----x2------------------------------|
E|-0h2-0h2--0h2-0h2--0h2---0h2-0h2--2-22-3-------------------------------------|
                                      **


e|-----------------------------------------------------------------------------|
B|-----------------------------------------------------------------------------|
G|---------5+-------------------5+---------------------------------------------|
D|------------x2-----5+-----------------3--------------------------------------|
A|----------------------------------22--3----x2--------------------------------|
E|-0h2-0h2-------0h2-----0h2-0h2----22--3--------------------------------------|
                                    **
                          1st Verse

e|----0----------------------------------0-----0-------------------------------|
B|-----0----------------------------------0-----0------------------------------|
G|-----------------------------------------------------------------------------|
D|--2------3--x2---2-0-2-----3---------2-----2-----3---------------------------|
A|--2------3-------2-0-2-x3--3--x2-----2-----2-----3---x2----------------------|
E|--2------3-------2-0-2-----3---------2-----2-----3---------------------------|

                                 Chorus

e|-----------------------------------------------------------------------------|
B|-----------------------------------------------------------------------------|
G|----------------5----------------------5-5-5---------------------------------|
D|---2-0-2-0-2-0--5---5-5----------------5-5-5---7-----------------------------|
A|---2-0-2-0-2-0--3---5-5-----------x3---3-3-3---5-----------------------------|
E|---2-0-2-0-2-0------5-5--5h7p5\2---------------5-----------------------------|

                         2nd Verse

e|----0----------------------------------------------------0----0-----------------|
B|-----0----------------------------------------------------0----0----------------|
G|--------------------------------------------------------------------------------|
D|---2---3-------2-0-2-----3--2-0-2-----000--2-0-2-----3--2----2---3--------------|
A|---2---3--x2---2-0-2-x3--3--2-0-2-x2--000--2-0-2-x2--3--2----2---3--------------|
E|---2---3-------2-0-2-----3--2-0-2-----000--2-0-2-----3--2----2---3--------------|
                                        ***

                         Bridge/Breakdown

e|-----------------------------------------------------------------------------|
B|-----------------------------------------------------------------------------|
G|-----------------------------------------------------------------------------|
D|-----------8--------8--4-4------------8--------8---1-1-----------------------|
A|-----------7--------7--4-4--x3--------7--------7---1-1-----------------------|
E|-----6p5-0----6p5-0----4-4------6p5-0----6p5-0-----1-1-----------------------|

                              Solo

e|--10-10-10-10-12h13--10-10-10-10--/5-3-3-3-3-3-/15-15-15-15-15-x2--------------|
B|------------------------------------------------------------------5+--5+-------|
G|--------------------------------------------------------------------5+---------|
D|-----------------------------------------------------------------------------|
A|-------------------------------------------------------------------------------|
E|-------------------------------------------------------------------------------|

Intro x1
Main Riff
1st Verse
Chorus
2nd half of Main Riff
2nd Verse
Chorus
Bridge
Solo
Chorus x2
Bridge
************************************

| /   slide up
| \   slide down
| h   hammer-on
| p   pull-off
| ~   vibrato
| +   harmonic
| x   Mute note
| b   Bend
| pb  Pre-bend
| br  Bend release
| pbr Pre-bend release
| brb Bend release bend

************************************

            
            
Suggest correction
Creating personal tab
Creating personal tab
You can edit any tab online and save it as your Personal.

You can edit, replace or remove any tab part or add personal notes – all changes will be seen only by you.

Personal tabs can be accessed anytime from any device, even offline.
Learn more »
Give kudos to tab author, rate the tab!
1 2 3 4 5
comments
print report bad tab
3 comments total.
0 reply
footlongsub 110 Sep 26, 2015 03:45 PM

Good to finally have a great tab for this song

0 reply
footlongsub 110 Apr 12, 2016 11:49 AM

About 2 years since I first learned it. I used the other tabs and figured the rest by ear but it's awesome that we have a great tab up now

guest
You may want to rate the tab now too:
select rating
Wanna post a correction for this tab? Suggest correction