Oops, an error
Loading. Please wait.

Beer tab

by Seether
139 views 9 this week
no commentswrite comment
1 2 3 4 5
x 5
add to favorites
×
Save as Personal and add changes to this tab that will be seen only by you. Learn more ›
×
You can save this tab as Personal to edit and correct it or add notes. All changes will be seen only by you. Learn more »
launch autoscroll
font size
0
reset
how to read this tab
guitar tuner
edit
Autoscroll
slow
fast
+/-
esc
set tempo
stop
[Verse 1]
e|---------------------------------------------|
B|---------------------------------------------|
G|---------------------------------------------|
D|----------4---------------4------------------|
A|------4-------4-------4----------------------|
E|--2---------------3----------2---------------|
 
[Chorus]
e|----------------|
B|----------------|
G|----------------|
D|----------------|
A|--2/9-----------|
E|----------------|


e|----------------------------------------------|
B|----------------------------------------------|
G|----------------------------------------------|
D|--4-4-4-4--5-5-5-5--7-7-7-7-------------------|
A|--4-4-4-4--5-5-5-5--7-7-7-7------7------------|
E|--2-2-2-2--3-3-3-3--5-5-5-5--7-8--------------|

[Verse 2]
e|----------------------------------------------|
B|----------------------------------------------|
G|----------------------------------------------|
D|----------------------------------------------|
A|--4--4-4--5-4----4--4-----5--4----------------|
E|--2--2-2--3-2-0--2--2--0--3--2----------------|
       ___________________________
                  PM

[Chorus]
e|----------------|
B|----------------|
G|----------------|
D|----------------|
A|--2/9-----------|
E|----------------|


e|----------------------------------------------|
B|----------------------------------------------|
G|----------------------------------------------|
D|--4-4-4-4--5-5-5-5--7-7-7-7-------------------|
A|--4-4-4-4--5-5-5-5--7-7-7-7------7------------|
E|--2-2-2-2--3-3-3-3--5-5-5-5--7-8--------------|
 
[Verse 3]
e|-------------------------------------------|
B|-------------------------------------------|
G|-------------------------------------------|
D|-------------------------------------------|
A|--4--4--4-----5--5-------4-----------------|
E|--2--2--2--0--3--3---0---2---*3------------|
       _______________________
                 PM

e|-----------------------------------------|
B|-----------------------------------------|
G|-----------------------------*5----------|
D|-----------------------------------------|
A|--4--4--4-----5--5-------4---------------|
E|--2--2--2--0--3--3---0---2---------------|
       _______________________
                 PM

e|---------------------------------------|
B|---------------------------------------|
G|---------------------------------------|
D|---------------------------------------|
A|--4--4--4-----5--5-------4-------------|
E|--2--2--2--0--3--3---0---2-------------|
       _______________________ ^Let Ring
                 PM

e|----------------------------------------------|
B|----------------------------------------------|
G|----------------------------------------------|
D|----------------------------------------------|
A|--4--4-4--5-4----4--4-----5--4----------------|
E|--2--2-2--3-2-0--2--2--0--3--2----------------|
       ___________________________
                  PM

[Outro]
e|-------------------------------------------------|
B|-------------------------------------------------|
G|----------------------------6--4--0-----6--4--0--|
D|-------------------------------------------------|
A|--4--4--4-----5--5-------4-----------------------|
E|--2--2--2--0--3--3---0---2-----------------------|
       _______________________
                 PM

e|-----------------------------------------|
B|-----------------------------------------|
G|------------------------------5^--0------|
D|-----------------------------------------|
A|--4--4-4--5-4----4--4-----4--------------|
E|--2--2-2--3-2-0--2--2--0--2--------------|
     _________________________
                PM

e|-------------------------------------------------|
B|-------------------------------------------------|
G|----------------------------6--4--0-----6--4--0--|
D|-------------------------------------------------|
A|--4--4--4-----5--5-------4-----------------------|
E|--2--2--2--0--3--3---0---2-----------------------|
       _______________________
                 PM

e|-----------------------------------------|
B|-----------------------------------------|
G|------------------------------5^--0------|
D|-----------------------------------------|
A|--4--4-4--5-4----4--4-----4--------------|
E|--2--2-2--3-2-0--2--2--0--2--------------|
       ________________________
                  PM

[End]
e|---------------------------------|
B|---------------------------------|
G|---------------------------------|
D|---------------------------------|
A|--4--4-4--5-4----4--4-----4------|
E|--2--2-2--3-2-0--2--2--0--2------|
       ________________________
                  PM


************************************

| /   Slide up
| PM  Palm mute
 
************************************

            
            
Suggest correction
Creating personal tab
Creating personal tab
You can edit any tab online and save it as your Personal.

You can edit, replace or remove any tab part or add personal notes – all changes will be seen only by you.

Personal tabs can be accessed anytime from any device, even offline.
Learn more »
comments
print report bad tab
guest
You may want to rate the tab now too:
select rating
Wanna post a correction for this tab? Suggest correction