Oops, an error
Loading. Please wait.

Blister Tab

version 1
version 1

Whole song

4,744 views 21 this week
no commentswrite comment
1 2 3 4 5
accurate
x 3
add to favorites
launch autoscroll
font size
0
reset
how to read this tab
guitar tuner
Autoscroll
slow
fast
+/-
esc
set tempo
stop
Help us to improve Ultimate-Guitar.com Take our survey!
×
Author
Difficulty
Tuning
intermediate
D# G# C# F# A# D#
-------------------------------------------------------------------------------
                             Blister - Seether
-------------------------------------------------------------------------------
Tabbed by: Murat "Skyline" Doganer
Email: m.doganer@hotmail.co.uk

Tuning: Half-a-step down, but standard will also do.

Before we start, i had to listen to this song about 3 million times to tab it, but i 
cant get it 100% perfect.  but i thought hey its close enough and sounds pretty good to me. 
you have corrections (which you will) please email them to me so i can fix this tab. cheers

Update - yay finally done the solo's and fixed a few more things!

Intro: (Em, G, C)

e|------0--------2---------0-------------------------------------------------|
B|------0--------0---------1-0-0-0h1-1-3p1-----------------------------------|
G|------0-0-0----0-0-0-----0----------0----0----x2---------------------------|
D|-----------------------2------------------2--------------------------------|
A|----2----2---2----2---3-----3----------------------------------------------|
E|--0---------3--------------------------------------------------------------|

Verse: (Em, G, C)

e|------0--------2---------0-------------------------------------------------|
B|------0--------0---------1-0-0-0h1-1-3p1-----------------------------------|
G|------0-0-0----0-0-0-----0----------0----0----x2---------------------------|
D|-----------------------2------------------2--------------------------------|
A|----2----2---2----2---3-----3----------------------------------------------|
E|--0---------3--------------------------------------------------------------|
Chorus: (Am, Em, Am, Em, Am, Em, C)

Once you figure out the strumming pattern its easy.

Solo:
e|-------|------------------------------------------------------------------|
B|-------|12-13-13-13h15-12-13-13-13h15-15-13-12-13----12-15-13-12-13-12----|
G|-12-14-|------------------------------------------12-------------------12-|
D|-------|------------------------------------------------------------------|
A|-------|------------------------------------------------------------------|
E|-------|------------------------------------------------------------------|
(Fade In)|                                                               (x2)

Verse 2: (Em, G, C)

e|------0--------2---------0-------------------------------------------------|
B|------0--------0---------1-0-0-0h1-1-3p1-----------------------------------|
G|------0-0-0----0-0-0-----0----------0----0----x2---------------------------|
D|-----------------------2------------------2--------------------------------|
A|----2----2---2----2---3-----3----------------------------------------------|
E|--0---------3--------------------------------------------------------------|

Chorus: (Am, Em, Am, Em, Am, Em, C)

Solo 2:
e|--------------------------------------------------------------------------|
B|--------------------------------------------------------------------------|
G|-----------------------0-----------------------------0--------------------|
D|--------------------------------------------------------------------------|
A|-2h3p2p0-2p0----0-2-33---2-33--2h3p2p0-2p0----0-2-33---2-33---------------|
E|-------------3-3-------------3-------------3-3-------------3--------------|

Verse 3: (Em, G, C)

e|------0--------2---------0-------------------------------------------------|
B|------0--------0---------1-0-0-0h1-1-3p1-----------------------------------|
G|------0-0-0----0-0-0-----0----------0----0----x2---------------------------|
D|-----------------------2------------------2--------------------------------|
A|----2----2---2----2---3-----3----------------------------------------------|
E|--0---------3--------------------------------------------------------------|

Chorus: (Am, Em, Am, Em, Am, Em, C)

Outro: (Em, G, C, Em)

e|------0--------2---------0-------------------------------------------------|
B|------0--------0---------1-0h1-1-3p1---------------------------------------|
G|------0-0-0----0-0-0-----0----------0---x2----then-------------------------|
D|-----------------------2----------------------------2----------------------|
A|----2----2---2----2---3-----------------------------2----------------------|
E|--0---------3---------------------------------------0----------------------|

OR:

e|----14-15--------------|
B|-12--------------------|
G|-----------------------|
D|-----------------------|
A|-----------------------|
E|-----------------------| (End with Em)

In the outro make sure you play each section considerably slower than normal.


Well its not perfect but its getting there!


| /  slide up
| \  slide down
| h  hammer-on
| p  pull-off
| ~  vibrato
| +  harmonic
| x  Mute note
===============================================================================
Suggest correction
Give kudos to tab author, rate the tab!
1 2 3 4 5
comments
print report bad tab
guest
You may want to rate the tab now too:
select rating
Please do not post tabs as comments. Select "correction" instead!