Oops, an error
Loading. Please wait.

Blister Tab

version 2
version 2

Whole song

4,261 views 1 this week
3 commentsread comments
1 2 3 4 5
excellent!
x 4
add to favorites
launch autoscroll
font size
0
reset
how to read this tab
guitar tuner
Tab Pro tools
  • play this tab
  • loop segment
  • change instrument
  • show fretboard
  • metronome
×
Best way to learn
"Blister"
Autoscroll
slow
fast
+/-
esc
set tempo
stop
Contributor
Tuning
D# G# C# F# A# D#
-----------------------------------------------------------------------------
                             Blister - Seether
-----------------------------------------------------------------------------
Tabbed by: Bogardeth
Email: tamer_of_the_squirrels@yahoo.com

Tuning: Half-Step Down

*1- I didn't tab out chord pattern, figure out the strumming yourself.
*2- I didn't re-tab repeated parts, just check the Song Order at the bottom.
=============================================================================

Intro/Verse: (Em, G, C)
e|-----0--------3-----------------------------------------------------------|
B|------0--------3-----1---0h1-3p1------------------------------------------|
G|-------0--------4-----0-0-------0-0---------------------------------------|
D|--------------------2--2----2----2----------------------------------------|
A|---2--------2----0-3------------------------------------------------------|
E|-0------0-3---------------------------------------------------------------|

Chorus:(Am) (Em) (C)

Solo (Before Verse 2)
e|-------|------------------------------------------------------------------|
B|-------|12-13-13-13h15-12-13-13-13h15-15-13-12-13----12-15-13-12-13-12----|
G|-12-14-|------------------------------------------12-------------------12-|
D|-------|------------------------------------------------------------------|
A|-------|------------------------------------------------------------------|
E|-------|------------------------------------------------------------------|
(Fade In)|                                                               (x2)

Solo 2:
e|--------------------------------------------------------------------------|
B|--------------------------------------------------------------------------|
G|-----------------------0-----------------------------0--------------------|
D|--------------------------------------------------------------------------|
A|-2h3p2p0-2p0----0-2-33---2-33--2h3p2p0-2p0----0-2-33---2-33---------------|
E|-------------3-3-------------3-------------3-3-------------3--------------|

Outro: Play Intro Slower
(This is the little part played near the end.)
e|----14-15--------------|
B|-12--------------------|
G|-----------------------|
D|-----------------------|
A|-----------------------|
E|-----------------------| (End with Em)

=============================================================================

SONG ORDER:
Intro
Verse
Chorus
Solo + Intro
Verse
Chorus
Solo 2 + Intro
Bridge (Just play verse but don't play chords)
Chorus
Outro

=============================================================================
| /  slide up
| \  slide down
| h  hammer-on
| p  pull-off
| ~  vibrato
| +  harmonic
| x  Mute note
=============================================================================
comments
print report bad tab
3 comments total.
+1 reply
Bogardeth wrote on January 7 2009, 09:55 pm

Forgot two little note:

Intro/Verse: (Em, G, C)
e|-----0--------3-----------------------------------------------------------|
B|-----00-------33-----1---0h1-3p1------------------------------------------|
G|-------0--------4-----0-0-------0-0---------------------------------------|
D|--------------------2--2----2----2----------------------------------------|
A|---2--------2----0-3------------------------------------------------------|
E|-0------0-3---------------------------------------------------------------|

-2 reply
Bogardeth wrote on February 11 2009, 07:19 am

Also; solo 2 is actually:

Solo 2:
e|--------------------------------------------------------------------|
B|--------------------------------------------------------------------|
G|--------------------0--------------------------0--------------------|
D|--------------------------------------------------------------------|
A|-2h3p2p0-----0-2-33---2-33--2h3p2p0-----0-2-33---2-33---------------|
E|----------3-3-------------3----------3-3-------------3--------------|

0 reply
Bogardeth wrote on February 13 2009, 01:43 pm

Ugh; Never mind 2nd comment; that part's fine...

I want to post or [tab]
guest
You may want to rate the tab now too:
select rating
Please do not post tabs as comments. Select "correction" instead!