Oops, an error
Loading. Please wait.

Breakdown Bass Tab

version 1
version 1

Whole song

Interactive

1,283 views 15 this week
no commentswrite comment
1 2 3 4 5
worth learning
x 1
add to favorites
launch autoscroll
font size
0
reset
guitar tuner
Tab Pro tools
  • play this tab
  • loop segment
  • change instrument
  • show fretboard
  • metronome
Autoscroll
slow
fast
+/-
esc
set tempo
stop
Difficulty
Tuning
novice
D# G# C# F# A# D#
So i don't know if there is even bass for this song but i came up with bass
 tabs for it because there wasn't any and this is for people that want to
 play along with this song like if your in a band or something and your
 doing a cover these bass tabs will therefore do you good and goes great
 with the song...... p.s. those are tens not ones then zeros when it comes
 to the end of the choruses when it eventually comes back from the
 breakdown...

Tuning is
Db Ab Db eb (half step)

intro
wait for the piano to being to start the bass

vere 1 (play this till you get to the chours)

Gb-----------------------------------------------------------|
Db-----------------------------------------------------------|
Ab-------------------------5p7-------------------------------|
Eb-2-222222-5-555555-000000----2-222222-5-555555-000000------|

chorus

Gb-----------------------------------------------------------|
Db-----------------------------------------------------------|
Ab-3-33333-333222------------3-33333-333222------------------|
Eb----------------222-555555----------------222-555555-------|

Gb-----------------------------------------------------------|
Db-----------------------------------------------------------|
Ab-3-33333-333222--------------------------------------------|
Eb----------------222-555555-7777777-10----------------------|

verse 2

(play the same thing from vere 1 but don't wait for the piano just play as soon as the 
chorus ends)

Back to chorus

Gb-----------------------------------------------------------|
Db-----------------------------------------------------------|
Ab-3-33333-333222------------3-33333-333222------------------|
Eb----------------222-555555----------------222-555555-------|

Gb-----------------------------------------------------------|
Db-----------------------------------------------------------|
Ab-3-33333-333222--------------------------------------------|
Eb----------------222-555555-7777777-10101010101010----------|

after the chorus
ends then it goes the breakdown where the singer is just yelling whatever he's saying 
but during that you play same thing you did in the chorus

and that's it

breakdown by seether

verse 1
chorus
verse 2
chorus
breakdown
back to chorus

p- pull off

thank you i hope this helped and in time i'll upload a video of me playing this to help 
anyone understand how to play this song....
comments
We did not receive enough feedback on this tab! Please rate:
print report bad tab
1 2 3 4 5
I want to post or [tab]
guest
You may want to rate the tab now too:
select rating
Please do not post tabs as comments. Select "correction" instead!