Oops, an error
Loading. Please wait.
We have Chord Pro version of Broken.
It's the closest thing you can get to the original song and it has interactive parts. Check out the tab »
×
by Seether
399,315 views 831 this week
7 commentsread comments
1 2 3 4 5
x 55
add to favorites
×
Save as Personal and add changes to this tab that will be seen only by you. Learn more ›
×
You can save this tab as Personal to edit and correct it or add notes. All changes will be seen only by you. Learn more »
save as personal
new!
launch autoscroll
font size
0
reset
how to read this tab
guitar tuner
Autoscroll
slow
fast
+/-
esc
set tempo
stop
Author
Difficulty
Tuning
novice
E A D G B E
                  Broken (Acoustic) by Seether

Tabbed by: Slimjim5792
Email:slim-jim-3@comcast.net

Tuning: Half a step down: Eb,Ab,Db,Gb,Bb,eb or Standard E,A,D,G,B,E. I think it sounds 
either way, so it’s your choice.

This is the acoustic, 1 guitar version of this song, without Amy Lee.
Credit goes to zman919191 all the way. This is his tab of the Amy Lee version;
I’m rearranging it to be the acoustic version. It sounds absolutely perfect, great job zman.


[Verse Riff 1]   0:00-0:07

eb|-2h3-----3--3------3---------2h3-----3--3------3---------|
Bb|-----0------3----3---3-----3-----0------3----3---3-----3-|
Gb|-------0----0--0---------0---------0----0--0---------0---|
Db|-2---------------------0-----2---------------------0-----|
Ab|------------3---------------------------3----------------|
Eb|---------------------------------------------------------|


[Verse Riff 2] 0:08-0:11

eb|-0h2-----3p2---0h2-------3p2-----|
Bb|-----3-------3-----3---3-----3---|
Gb|-------2-------------2---------0-|
Db|-0-------------------------------|
Ab|---------------------------------|
Eb|---------------------------------|


[Verse Riff 3] 0:11-0:22

eb|-2h3-----3--3------3---------2h3-----3--3------3---------|
Bb|-----0------3----3---3-----3-----0------3----3---3-----3-|
Gb|-------0----0--0---------0---------0----0--0---------0---|
Db|-2---------------------0-----2---------------------0-----|
Ab|------------3---------------------------3----------------|
Eb|---------------------------------------------------------|

eb|-2h3-----3--3------3------------|
Bb|-----0------3----3---3-----3----|
Gb|-------0----0--0---------0------|
Db|-2---------------------0--------|
Ab|------------3-------------------|
Eb|--------------------------------|


[Verse Riff 2] 0:23-0:26

eb|-0h2-----3p2---0h2-------3p2-----|
Bb|-----3-------3-----3---3-----3---|
Gb|-------2-------------2---------0-|
Db|-0-------------------------------|
Ab|---------------------------------|
Eb|---------------------------------|


[Verse Riff 3] 0:26-0:38

eb|-2h3-----3--3------3---------2h3-----3--3------3---------|
Bb|-----0------3----3---3-----3-----0------3----3---3-----3-|
Gb|-------0----0--0---------0---------0----0--0---------0---|
Db|-2---------------------0-----2---------------------0-----|
Ab|------------3---------------------------3----------------|
Eb|---------------------------------------------------------|

eb|-2h3-----3--3------3------------|
Bb|-----0------3----3---3-----3----|
Gb|-------0----0--0---------0------|
Db|-2---------------------0--------|
Ab|------------3-------------------|
Eb|--------------------------------|


[Verse Riff 2] 0:38-0:41

eb|-0h2-----3p2---0h2-------3p2-----|
Bb|-----3-------3-----3---3-----3---|
Gb|-------2-------------2---------0-|
Db|-0-------------------------------|
Ab|---------------------------------|
Eb|---------------------------------|


[Verse Riff 3] 0:42-0:54

eb|-2h3-----3--3------3---------2h3-----3--3------3---------|
Bb|-----0------3----3---3-----3-----0------3----3---3-----3-|
Gb|-------0----0--0---------0---------0----0--0---------0---|
Db|-2---------------------0-----2---------------------0-----|
Ab|------------3---------------------------3----------------|
Eb|---------------------------------------------------------|

eb|-2h3-----3--3------3------------|
Bb|-----0------3----3---3-----3----|
Gb|-------0----0--0---------0------|
Db|-2---------------------0--------|
Ab|------------3-------------------|
Eb|--------------------------------|


[Verse Riff 2] 0:54-0:57

eb|-0h2-----3p2---0h2-------3p2-----|
Bb|-----3-------3-----3---3-----3---|
Gb|-------2-------------2---------0-|
Db|-0-------------------------------|
Ab|---------------------------------|
Eb|---------------------------------|


[Chorus riff 1]  0:57-1:13

eb|-3333-3-3333-22-3333-3=3333-22-3333-3-3333-22-00-0-0000-22-|
Bb|-3333-3-3333-33-3333-3-3333-33-3333-3-3333-33-33-3-3333-33-|
Gb|-0000-x-xxxx-22-0000-x-xxxx-22-0000-x-xxxx-22-00-x-xxxx-22-|
Db|-2222-2-2222-00-2222-2-2222-00-2222-2-2222-00-22-2-2222-00-|
Ab|-3333-2-2222----3333-2-2222----3333-2-2222----33-2-2222----|
Eb|------0--------------0--------------0------------0---------|


[Chorus riff 2] 1:13-1:29

eb|-3333-3-3333-22-3333-3-3333-22-3333-3-3333-22-0000-0-12*-|
Bb|-3333-3-3333-33-3333-3-3333-33-3333-3-3333-33-3333-0-12*-|
Gb|-0000-x-xxxx-22-0000-x-xxxx-22-0000-x-xxxx-22-0000-0-----|
Db|-2222-2-2222-00-2222-2-2222-00-2222-2-2222-00-2222-2-----|
Ab|-3333-2-2222----3333-2-2222----3333-2-2222----3333-2-----|
Eb|------0--------------0--------------0--------------0-----|


[Verse Riff 3] 1:30-1:41

eb|-2h3-----3--3------3---------2h3-----3--3------3---------|
Bb|-----0------3----3---3-----3-----0------3----3---3-----3-|
Gb|-------0----0--0---------0---------0----0--0---------0---|
Db|-2---------------------0-----2---------------------0-----|
Ab|------------3---------------------------3----------------|
Eb|---------------------------------------------------------|

eb|-2h3-----3--3------3------------|
Bb|-----0------3----3---3-----3----|
Gb|-------0----0--0---------0------|
Db|-2---------------------0--------|
Ab|------------3-------------------|
Eb|--------------------------------|


[Verse Riff 2] 1:41-1:45

eb|-0h2-----3p2---0h2-------3p2-----|
Bb|-----3-------3-----3---3-----3---|
Gb|-------2-------------2---------0-|
Db|-0-------------------------------|
Ab|---------------------------------|
Eb|---------------------------------|


[Verse Riff 3] 1:45-1:57

eb|-2h3-----3--3------3---------2h3-----3--3------3---------|
Bb|-----0------3----3---3-----3-----0------3----3---3-----3-|
Gb|-------0----0--0---------0---------0----0--0---------0---|
Db|-2---------------------0-----2---------------------0-----|
Ab|------------3---------------------------3----------------|
Eb|---------------------------------------------------------|

eb|-2h3-----3--3------3------------|
Bb|-----0------3----3---3-----3----|
Gb|-------0----0--0---------0------|
Db|-2---------------------0--------|
Ab|------------3-------------------|
Eb|--------------------------------|


[Verse Riff 2] 1:57-2:00

eb|-0h2-----3p2---0h2-------3p2-----|
Bb|-----3-------3-----3---3-----3---|
Gb|-------2-------------2---------0-|
Db|-0-------------------------------|
Ab|---------------------------------|
Eb|---------------------------------|


[Verse Riff 3] 2:01-2:12

eb|-2h3-----3--3------3---------2h3-----3--3------3---------|
Bb|-----0------3----3---3-----3-----0------3----3---3-----3-|
Gb|-------0----0--0---------0---------0----0--0---------0---|
Db|-2---------------------0-----2---------------------0-----|
Ab|------------3---------------------------3----------------|
Eb|---------------------------------------------------------|

eb|-2h3-----3--3------3------------|
Bb|-----0------3----3---3-----3----|
Gb|-------0----0--0---------0------|
Db|-2---------------------0--------|
Ab|------------3-------------------|
Eb|--------------------------------|


[Verse Riff 2] 2:12-2:15

eb|-0h2-----3p2---0h2-------3p2-----|
Bb|-----3-------3-----3---3-----3---|
Gb|-------2-------------2---------0-|
Db|-0-------------------------------|
Ab|---------------------------------|
Eb|---------------------------------|


[Chorus riff 1]  2:16-2:32

eb|-000000-0--000222--000000-0--000222--000000-0--000222--000000-0--000222-|
Bb|-111111-0--0003330-111111-0--0003330-111111-0--0003330-111111-0--0003330|
Gb|-000000-0--0002220-000000-0--0002220-000000-0--0002220-000000-0--0002220|
Db|-222222-2--2220000-222222-2--2220000-222222-2--2220000-222222-2--2220000|
Ab|-333333-2--222---0-333333-2--222---0-333333-2--222---0-333333-2--222---0|
Eb|--------0--000------------0--000------------0--000------------0--000----|


[Chorus riff 2] 2:32-2:51 END

eb|-000000-0--000222--000000-0--000222--000000-0--000222--000000-0-|-12*-|
Bb|-111111-0--0003330-111111-0--0003330-111111-0--0003330-111111-0-|-12*-|
Gb|-000000-0--0002220-000000-0--0002220-000000-0--0002220-000000-0-|-----|
Db|-222222-2--2220000-222222-2--2220000-222222-2--2220000-222222-2-|-----|
Ab|-333333-2--222---0-333333-2--222---0-333333-2--222---0-333333-2-|-----|
Eb|--------0--000------------0--000------------0--000------------0-|-----|


**********************************

*=Harmonic
p=pull-off
h=Hammer-on

**********************************

Great song by a great band. I hope this was helpful, and again I say, credit goes to 
I just made 1 small edit to the chorus riff 1, other then that it’s all him, great job.

Any questions or comments please feel free to e-mail me: slim-jim-3@comcast.net. Thanks.
Suggest correction
comments
print report bad tab
7 comments total. Showing first comments.
0 reply
rockingdb 10 Jan 31, 2009 08:38 AM

Awesome tab man! It's really helpful. I'm already getting the song down!!

0 reply
Slimjim5792 122 Feb 01, 2009 05:55 AM

Cool, thanks.

0 reply
meatal_chewtoy 31 Jan 07, 2011 08:41 AM

awsom tab thanks man perfecto

guest
You may want to rate the tab now too:
select rating
Wanna post a correction for this tab? Suggest correction