Oops, an error
Loading. Please wait.

Broken Bass Tab

version 2
version 2

Whole song

  • Better accuracy, in the melodic and the rhythmic. ... Show more
46 views 3 this week
no commentswrite comment
1 2 3 4 5
3 more votes to show rating
add to favorites
launch autoscroll
font size
0
reset
guitar tuner
Autoscroll
slow
fast
+/-
esc
set tempo
stop
Help us to improve Ultimate-Guitar.com Take our survey!
×
Author
Difficulty
Tuning
novice
D# G# C# F# A# D#
About this tab version
Better accuracy, in the melodic and the rhythmic. Better division of the music sessions. Was this info helpful? Yes No
Title: Broken
Artist: Seether
Album: Disclaimer
Bassist: Dale Stewart
Composer: Shaun Morgan / Dale Stewart
Tabbed By: FLBatista


VERSE (Amy Lee: The worst is over now...):

Gb|---------------|------------------|--------------------|------------------|
Db|---------------|------------------|--------9-----------|------------------|
Ab|------------3--|--------3--5------|-7-------------3----|--------3--5------|
Eb|-0-------------|------------------|--------------------|------------------|
Bb|---------------|------------------|--------------------|------------------|

Gb|---------------|------------------|--------------------|--------------7----|
Db|---------------|------------------|--------7-----------|-----------7-------|
Ab|------------3--|--------3--5------|-5------------------|--------5----------|
Eb|-0-------------|------------------|--------------------|-------------------|
Bb|---------------|------------------|---------------3----|-------------------|

Gb|---------------|------------------|--------------------|------------------|
Db|---------------|------------------|--------9-----------|------------------|
Ab|------------3--|--------3--5------|-7-------------3----|--------3--5------|
Eb|-0-------------|------------------|--------------------|------------------|
Bb|---------------|------------------|--------------------|------------------|

Gb|---------------|------------------|--------------------|--------------7----|
Db|---------------|------------------|--------7-----------|--------7----------|
Ab|------------3--|--------3--5------|-5-------------5----|-----------5-------|
Eb|-0-------------|------------------|--------------------|-------------------|
Bb|---------------|------------------|--------------------|-------------------|


CHORUS (Cause im broken...):

Gb|----------------------|---------------------|----------------------|---------------------|
Db|----------------------|----------------7----|----------------------|----------------7----|
Ab|-3------3--3--3-------|--/7--7----5---------|-3------3--3--3-------|--/7--7----5---------|
Eb|-----------------0----|---------------------|-----------------0----|---------------------|
Bb|----------------------|---------------------|----------------------|---------------------|

Gb|----------------------|---------------------|----------------------|---------------------|
Db|----------------------|----------------7----|----------------------|----------------7----|
Ab|-3------3--3--3-------|--/7--7----5---------|-3------3--3--3-------|--/7--7----5---------|
Eb|-----------------0----|---------------------|-----------------0----|---------------------|
Bb|----------------------|---------------------|----------------------|---------------------|

Gb|----------------------|---------------------|----------------------|---------------------|
Db|----------------------|----------------7----|----------------------|----------------7----|
Ab|-3------3--3--3-------|--/7--7----5---------|-3------3--3--3-------|--/7--7----5---------|
Eb|-----------------0----|---------------------|-----------------0----|---------------------|
Bb|----------------------|---------------------|----------------------|---------------------|

Gb|----------------------|---------------------|----------------------|------------------------|
Db|----------------------|----------------7----|----------------------|------------------------|
Ab|-3------3--3--3-------|--/7--7----5---------|-3------5--3--5--7----|---7--7--7--7--7--7--7--|
Eb|-----------------0----|---------------------|----------------------|------------------------|
Bb|----------------------|---------------------|----------------------|------------------------|


INTERLUDE:

Gb|---------------|------------------|--------------------|------------------|
Db|---------------|------------------|--------9-----------|------------------|
Ab|------------3--|--------3--5------|-7-------------3----|--------3--5------|
Eb|-0-------------|------------------|--------------------|------------------|
Bb|---------------|------------------|--------------------|------------------|

Gb|---------------|------------------|--------------------|--------------7----|
Db|---------------|------------------|--------7-----------|--------7----------|
Ab|------------3--|--------3--5------|-5------------------|-----------5-------|
Eb|-0-------------|------------------|--------------------|-------------------|
Bb|---------------|------------------|---------------3----|-------------------|

Gb|-----------------|-----------------|-----------------|-----------------|
Db|-----------------|-----------------|-----------------|-----------------|
Ab|------------3----|-----------------|-----------------|-----------------|
Eb|-0---------------|-----------------|-0---------------|-----------------|
Bb|-----------------|-----------------|------------1----|-----------------|

Gb|-----------------|-----------------|-----------------|-----------------|
Db|-----------------|-----------------|-----------------|-----------------|
Ab|------------3----|-----------------|-5---------------|-----------------|
Eb|-0---------------|-----------------|-----------------|-----------------|
Bb|-----------------|-----------------|-----------------|-----------------|


CHORUS (Cause im broken..) (x2):

Gb|----------------------|---------------------|----------------------|---------------------|
Db|----------------------|----------------7----|----------------------|----------------7----|
Ab|-3------3--3--3-------|--/7--7----5---------|-3------3--3--3-------|--/7--7----5---------|
Eb|-----------------0----|---------------------|-----------------0----|---------------------|
Bb|----------------------|---------------------|----------------------|---------------------|

Gb|----------------------|---------------------|----------------------|----------------------|
Db|----------------------|----------------7----|----------------------|----------------------|
Ab|-3------3--3--3-------|--/7--7----5---------|-3------3--3--3-------|--/7--7----5--7--5----|
Eb|-----------------0----|---------------------|-----------------0----|--------------------7-|
Bb|----------------------|---------------------|----------------------|----------------------|


INSTRUMENTAL CHORUS:

Gb|----------------------|---------------------|----------------------|---------------------|
Db|----------------------|----------------7----|----------------------|----------------7----|
Ab|-3------3--3--3-------|--/7--7----5---------|-3------3--3--3-------|--/7--7----5---------|
Eb|-----------------0----|---------------------|-----------------0----|---------------------|
Bb|----------------------|---------------------|----------------------|---------------------|

Gb|----------------------|---------------------|----------------------|----------------------|
Db|----------------------|----------------7----|----------------------|----------------------|
Ab|-3------3--3--3-------|--/7--7----5---------|-3------3--3--3-------|--/7--7----5--7--5----|
Eb|-----------------0----|---------------------|-----------------0----|--------------------7-|
Bb|----------------------|---------------------|----------------------|----------------------|


CHORUS (Cause im broken...):

Gb|----------------------|---------------------|----------------------|---------------------|
Db|----------------------|----------------7----|----------------------|----------------7----|
Ab|-3------3--3--3-------|--/7--7----5---------|-3------3--3--3-------|--/7--7----5---------|
Eb|-----------------0----|---------------------|-----------------0----|---------------------|
Bb|----------------------|---------------------|----------------------|---------------------|

Gb|----------------------|---------------------|----------------------|------------------------|
Db|----------------------|----------------7----|----------------------|------------------------|
Ab|-3------3--3--3-------|--/7--7----5---------|-3------5--3--5--7----|---7--7--7--7--7--7--7--|
Eb|-----------------0----|---------------------|----------------------|------------------------|
Bb|----------------------|---------------------|----------------------|------------------------|


OUTRO:

Gb|-----------------|-----------------|-----------------|-----------------|
Db|-----------------|-----------------|-----------------|-----------------|
Ab|------------3----|-----------------|------------3----|-----------------|
Eb|-0---------------|-----------------|-0---------------|-----------------|
Bb|-----------------|-----------------|-----------------|-----------------|

Gb|-----------------|-----------------|-----------------|-----------------|
Db|-----------------|-----------------|-----------------|-----------------|
Ab|------------3----|-----------------|-5---------------|-----------------|
Eb|-0---------------|-----------------|-----------------|-----------------|
Bb|-----------------|-----------------|-----------------|-----------------|


****************************
| / : Slide Up
****************************
Suggest correction
Give kudos to tab author, rate the tab!
1 2 3 4 5
comments
print report bad tab
guest
You may want to rate the tab now too:
select rating
Wanna post a correction for this tab? Suggest correction