Oops, an error
Loading. Please wait.

Broken Tab

version 2
337,971 views 225 this week
33 commentsread comments
1 2 3 4 5
excellent!
x 110
add to favorites
launch autoscroll
font size
0
reset
how to read this tab
guitar tuner
Autoscroll
slow
fast
+/-
esc
set tempo
stop
Help us to improve Ultimate-Guitar.com Take our survey!
×
Author
[Intro/Verses]

[Guitar 1- Dale Stewart]

(Gtr 1)                                
e|-2h3---3--3----3-----------|         e|-0h2--3p2-0h2--3p2-------------------|
B|----0---0-3---3-3----------|         B|----3----3---3-----------------------|
G|-----0----0--0---0-0-------|         G|-----0--------0----------------------|
D|-2----------------0--------|         D|-0-----------------------------------|
A|----------3----------------|         A|-------------------------------------|
E|---------------------------|(x3)     E|-------------------------------------|(x1)

 [Guitar 2 - Shaun morgan]
 
 [x3]                        [x1]     
       v     v v     v             v v
e|---0-0-x-0-0-0-0-0-0-------|-2-2-2-0-0-0-0-0-0-------------------|
B|---0-0-x-1-1-1-1-1-1-------|-3-3-3-3-3-3-3-3-3-------------------|
G|-0-0-0-x-0-0-0-0-0-0-------|-2-2-2-2-2-2-2-2-2-------------------|
D|-2-2-2-x-2-2-2-2-2-2-------|-0-0-0-0-0-0-0-0-0-------------------|
A|-2-2-2-x-3-3-3-3-3-3-------|-------------------------------------|
E|-0-0-0-x-0-0-0-0-0-0-------|-------------------------------------|      


[Chorus]
[Guitar 1 and 2]
 
 [x2]                         [x1]"and i won't..     
     v   v       v v                   v     v   v       v v
e|-0-0-0-0-x-0-0-0-0-0-------|-------0-0-0-0-0-0-0-x-0-0-0-0-0------|
B|-1-1-1-1-x-0-0-0-0-0-------|-------3-3-3-1-1-1-1-x-0-0-0-0-0------|
G|-0-0-0-0-x---0-0-0-0-------|-------2-2-2-0-0-0-0-x---0-0-0-0------|
D|-2-2-2-2-x---2-2-2-2-------|-------0-0-0-2-2-2-2-x---2-2-2-2------|
A|-3-3-3-3-x---2-2-2-2-------|-------------3-3-3-3-x---2-2-2-2------|
E|-0-0-0-0-x---0-0-0-0-------|-------------0-0-0-0-x---0-0-0-0------|                      
"when you're gone away..

          v   v                          
e|-------0-0-0-0-x-0-0---|
B|-------1-1-1-1-x-0-0---|
G|-------0-0-0-0-x---0---|
D|-------2-2-2-2-x---2---|
A|-------3-3-3-3-x---2---|
E|-------0-0-0-0-x---0---|  

[Verse 2]
[Guitar 1- Dale Stewart]

 [x3]                         [x1]
e|-2h3---3- 3--- 3-----------|-0h2--3p2-0h2--3p2-------------------|
B|----0---0-3-- 3-3----------|----3----3---3-----------------------|
G|-----0----0- 0---0-0-------|-----0--------0----------------------|
D|-2--------------- 0--------|-0-----------------------------------|
A|----------3----------------|-------------------------------------|
E|---------------------------|-------------------------------------|

 [Guitar 2 - Shaun morgan]
  [x3]                        [x1]     
       v     v v     v             v v
e|---0-0-x-0-0-0-0-0-0-------|-2-2-2-0-0-0-0-0-0-------------------|
B|---0-0-x-1-1-1-1-1-1-------|-3-3-3-3-3-3-3-3-3-------------------|
G|-0-0-0-x-0-0-0-0-0-0-------|-2-2-2-2-2-2-2-2-2-------------------|
D|-2-2-2-x-2-2-2-2-2-2-------|-0-0-0-0-0-0-0-0-0-------------------|
A|-2-2-2-x-3-3-3-3-3-3-------|-------------------------------------|
E|-0-0-0-x-0-0-0-0-0-0-------|-------------------------------------


[Chorus]
[Guitar 1 and 2]
 
 [x2]                         [x1]"and i won't..     
     v   v       v v                   v     v   v       v v
e|-0-0-0-0-x-0-0-0-0-0-------|-------0-0-0-0-0-0-0-x-0-0-0-0-0------|
B|-1-1-1-1-x-0-0-0-0-0-------|-------3-3-3-1-1-1-1-x-0-0-0-0-0------|
G|-0-0-0-0-x---0-0-0-0-------|-------2-2-2-0-0-0-0-x---0-0-0-0------|
D|-2-2-2-2-x---2-2-2-2-------|-------0-0-0-2-2-2-2-x---2-2-2-2------|
A|-3-3-3-3-x---2-2-2-2-------|-------------3-3-3-3-x---2-2-2-2------|
E|-0-0-0-0-x---0-0-0-0-------|-------------0-0-0-0-x---0-0-0-0------|                      
"when you're gone away..
          v   v                          
E|-------0-0-0-0-x-0-0---|
B|-------1-1-1-1-x-0-0---|
G|-------0-0-0-0-x---0---|
D|-------2-2-2-2-x---2---|
A|-------3-3-3-3-x---2---|
E|-------0-0-0-0-x---0---|  


[Solo]

[Shaun plays this while Dale plays the intro]

e|-[12]-------------------------------|
B|-[12]-------------------------------|
G|----------------------------------9-|    
D|-------------------------------- 9--|
A|------------7-5-9h10-9-9h10-9s7-7---|
E|-----0-3-5-7------------------------|  

e|--------------------------------------------------|
B|--------------------------------------------------|
G|--------------------------------------------------|    
D|---------------------------- -----12-10-9-7h9-9-9-|
A|--------7-5-9h10-9-9h10 9h10-10s12----------------|
E|-0-3-5-7------------------------------------------|  

e|----------------------------------------|
B|----------------------------------------|
G|--------------------------------------9-|    
D|-------------------------------------9--|
A|--------7-5-9h10-9-9h10-9s7-7s12-10-7---|
E|-0-3-5-7--------------------------------|  

e|--------------------------------------------------|
B|--------------------------------------------------|
G|--------------------------------------------------|    
D|---------------------------- -----12-10-9-7h9-9-9-|
A|--------7-5-9h10-9-9h10 9h10-10s12----------------|
E|-0-3-5-7------------------------------------------|  

[Back to chorus]


[Chorus]

[Guitar 1 and 2]
 
 [x2]                         [x1]"and i won't..     
     v   v       v v                   v     v   v       v v
e|-0-0-0-0-x-0-0-0-0-0-------|-------0-0-0-0-0-0-0-x-0-0-0-0-0------|
B|-1-1-1-1-x-0-0-0-0-0-------|-------3-3-3-1-1-1-1-x-0-0-0-0-0------|
G|-0-0-0-0-x---0-0-0-0-------|-------2-2-2-0-0-0-0-x---0-0-0-0------|
D|-2-2-2-2-x---2-2-2-2-------|-------0-0-0-2-2-2-2-x---2-2-2-2------|
A|-3-3-3-3-x---2-2-2-2-------|-------------3-3-3-3-x---2-2-2-2------|
E|-0-0-0-0-x---0-0-0-0-------|-------------0-0-0-0-x---0-0-0-0------|                      
"when you're gone away..
          v   v                          
e|-------0-0-0-0-x-0-0---|
B|-------1-1-1-1-x-0-0---|
G|-------0-0-0-0-x---0---|
D|-------2-2-2-2-x---2---|
A|-------3-3-3-3-x---2---|
E|-------0-0-0-0-x---0---|  


[Outro]

 [Guitar 2 - Shaun morgan]
 [x3]                        [x1]     
       v     v v     v             v v
e|---0-0-x-0-0-0-0-0-0-------|-2-2-2-0-0-0-0-0-0-------------------|
B|---0-0-x-1-1-1-1-1-1-------|-3-3-3-3-3-3-3-3-3-------------------|
G|-0-0-0-x-0-0-0-0-0-0-------|-2-2-2-2-2-2-2-2-2-------------------|
D|-2-2-2-x-2-2-2-2-2-2-------|-0-0-0-0-0-0-0-0-0-------------------|
A|-2-2-2-x-3-3-3-3-3-3-------|-------------------------------------|
E|-0-0-0-x-0-0-0-0-0-0-------|-------------------------------------|      

[Guitar 1 - Dale stewart]...please figure out the timing for this one

 [x2]
e|-[12]----------[12]--------------|
B|---[12]----------[12]-[7]--------|
G|-------[12]--------------[7]-----|
D|-----[12]------------------[7]---|
A|---------------------------------|
E|---------------------------------|


[Outro]

        v  
e|-[12]-0---|
B|-[12]-0---|
G|------0---|
D|------2---|
A|------2---|
E|------0---|

************************************

| x  Dead note
| h  Hammer-on
| p  Pull-off
| s  Slap

************************************
Suggest correction
What's this?
You can suggest a correction to this tab. Community and Mods will review your correction and vote to approve or reject it.
comments
print report bad tab
33 comments total. Showing first comments.
0 reply
stgdlf 29 wrote on December 22 2004, 12:00 am

Great tab man! I've seen others that don't have the chorus right, but you nailed it. Great job!!

0 reply
WhoStoleMyPants 54 wrote on August 16 2005, 12:00 am

thanx man i really needed to play this song for my girlfriends! its her favorite!! :D

+6 reply
WhoStoleMyPants 54 wrote on August 20 2005, 12:00 am

sry its juss girlFRIEND not friendS, lol that'd be kinda saweet tho! :D

guest
You may want to rate the tab now too:
select rating
Please do not post tabs as comments. Select "correction" instead!