Oops, an error
Loading. Please wait.
We have an official Broken tab made by UG professional guitarists. Check out the tab »
×

Broken bass

version 3
version 3

Whole song

  • Better accuracy, in the melodic and the rhythmic. ... Show more
  • Transcribed from Rocksmith. Includes all fills and... Show more
by Seether
19 views 6 this week
no commentswrite comment
1 2 3 4 5
3 more votes to show rating
add to favorites
×
Save as Personal and add changes to this tab that will be seen only by you. Learn more ›
×
You can save this tab as Personal to edit and correct it or add notes. All changes will be seen only by you. Learn more »
launch autoscroll
font size
0
reset
guitar tuner
edit
Autoscroll
slow
fast
+/-
esc
set tempo
stop
About this tab version
Transcribed from Rocksmith. Includes all fills and variations, video link in tab. Was this info helpful? Yes No
https://www.youtube.com/watch?v=Jci3jB-J2fI

(No bass until Verse 2)

[Verse 2]
F#|-----------------------------------------------------------|
C#|-----------------------------------9-\---------------------|
G#|-------------3-----3-3---3-5---7-------3-----3-3---3-5-5-5-|
D#|-0-----0---------------------------------------------------|

F#|---------------------------------------------------7----|
C#|-------------------------------------7-----------7------|
G#|-------5/7---3-----3-3---3-5-5-5-5-------5-----5--------|
D#|-0------------------------------------------------------|

F#|-------------------------------------------------------------|
C#|-------------------------------------9-\---------------------|
G#|-------------3-----3-3---3h5-5-/-7-------3-----3-3---3-5-5-5-|
D#|-0-----------------------------------------------------------|

F#|---------------------------------------------------------7---|
C#|-------------------------------------7-----------------7-----|
G#|-------------3-----3-3---3-5-5-5-5-------5-5-----5---5-------|
D#|-0-----0-----------------------------------------------------|

[Chorus 2]
F#|-------------------------------------------------------------------------------------------------|
C#|---------------------7-----------------------7-----------------------7---------------------------|
G#|-3---3-------7---5-------3---3-------7---5-------3---3-------7---5-------3---3-------5h7-5/7\5-2-|
D#|---------0-----------------------0-----------------------0-----------------------0---------------|

F#|-------------------------------------------------------------------------------------------|
C#|---------------------7-------------------------7-----------------------7-------------------|
G#|-3---3-------7---5-------3---3-3-------7---5-------3---3-------7---5-------3---3/5-7---/---|
D#|---------0-------------------------0-----------------------0-------------------------------|

[Bridge]
F#|-----------------------------------------------------------------------------------------7---|
C#|---------------------------9--\5---------------------------------------7---------------7-----|
G#|---------3---3---3/5-/-7-------3---3-5-5-5---------3---3---3/5-5-5-5-------5---5-5-5-5-------|
D#|-0---0-------------------------------------0---0---------------------------------------------|

F#|--------------------------------------------------------|
C#|--------------------------------------------------------|
G#|--------3-------------3-------------3-----/5------------|
D#|-0-------------0-------------0--------------------------|

[Chorus 3]
F#|-----------------------------------------------------------------------------------------------------|
C#|---------------------7-----------------------7-----------------------7-7-----------------------------|
G#|-3---3-------7---5-------3---3-------7---5-------3---3-------7---5-5-----3---3-------5h7-7-7-5/7\5-2-|
D#|---------0-----------------------0-----------------------0-----------------------0-------------------|

F#|-------------------------------------------------------5---------------------------------------------|
C#|---------------------7-7-----------------------7-7---------------------7-7---------------------------|
G#|-3---3-------7---5-5-----3---3-3-------7---5-5-----3-----------7---5-5-----3---3-------5h7---5/7\5-2-|
D#|---------0-------------------------0-----------------------0-----------------------0-----------------|

[Interlude]
F#|-----------------------------------------------------------------------------------------------------|
C#|---------------------7-7---------------------7-7---------------------7-7-----------------------------|
G#|-3---3-------7---5-5-----3---3-------7---5-5-----3---3-------7---5-5-----3---3-------7-----5/7\5-2-|
D#|---------0-----------------------0-----------------------0-----------------------0-------------------|

[Chorus 4]
F#|------5-5-5---------------------------------------------5-5-5------------------------------------|
C#|------------------------7-7---------------------7-------------------------7-7--------------------|
G#|-3--------------7---5-5-----3---3-------7---5-5-----3-------------7---5-5-----3---3/5---7--------|
D#|------------0-----------------------0-------------------------0----------------------------------|

[Outro]
F#|-----------------------------------------------------------------|
C#|-----------------------------------------------------------------|
G#|--------3-------------3-------------3-----/5---------------------|
D#|-0-------------0-------------0-----------------------0-----------|

************************************

| h   Hammer-on
| /   Slide up
| \   Slide down

************************************

            
            
Suggest correction
Creating personal tab
Creating personal tab
You can edit any tab online and save it as your Personal.

You can edit, replace or remove any tab part or add personal notes – all changes will be seen only by you.

Personal tabs can be accessed anytime from any device, even offline.
Learn more »
Give kudos to tab author, rate the tab!
1 2 3 4 5
comments
print report bad tab
guest
You may want to rate the tab now too:
select rating
Wanna post a correction for this tab? Suggest correction