Oops, an error
Loading. Please wait.
We have Chord Pro version of Broken.
It's the closest thing you can get to the original song and it has interactive parts. Check out the tab »
×
by Seether
95,366 views 30 this week
16 commentsread comments
1 2 3 4 5
x 37
add to favorites
launch autoscroll
font size
0
reset
how to read this tab
guitar tuner
Autoscroll
slow
fast
+/-
esc
set tempo
stop
Author
Tuning
D# G# C# F# A# D#
Artist: Seether feat. Amy Lee
Song: Broken
(From the 2004 Album DISCLAIMER II)

This took me forever to do.  But, I love this song, and I was unhappy with a lot of tabs 
it.  So, tada - my version.  The violin part after the third chorus can be played by 
solo guitar and is included in this tab.

(Gtr 1) (D# A# F# C# G# D#) - 'Lead'
(Gtr 2) (D# A# F# C# G# D#) - 'Rhythm'
(Gtr 3) (D# A# F# C# G# D#) - 'Solo'

4/4 Q=62

[Intro]
    (Gtr 1)
    S S S S E   E +S  S S S S S S S   S S S S E   E +S  S S S S S S S
D#|-2h3-----3---3-(3)-----3---------|-2h3-----3---3-(3)-----3----------|
A#|-----0-------3-(3)---3---3-------|-----0-------3-(3)---3---3--------|
F#|-------0-----0-(0)-0-------0---0-|-------0-----0-(0)-0-------0---0--|
C#|-2---------------------------0---|-2---------------------------0----|
G#|-------------3-(3)---------------|-------------3-(3)----------------|
D#|---------------------------------|----------------------------------|

  | (Gtr 2)
  | E   S S S S E +S  E   S E   S S   E   S S S S E +S  E   S E   S S
D#|-------0-0-0-0-(0)-0---0-0---0---|-------0-0-0-0-(0)-0---0-0---0----|
A#|-------0-0-0-1-(1)-1---1-1---1-0-|-------0-0-0-1-(1)-1---1-1---1-0--|
F#|-------0-0-0-0-(0)-0---0-0---0-0-|-------0-0-0-0-(0)-0---0-0---0-0--|
C#|-2---2-2-2-2-2-(2)-2---2-2---2-0-|-2---2-2-2-2-2-(2)-2---2-2---2-0--|
G#|-2---2-------3-(3)-------3---3---|-2---2-------3-(3)-------3---3----|
D#|-0---0---------------------------|-0---0----------------------------|

    (Gtr 1)
    S S S S E   E +S  S S S S S S S   S S S S  S  S S S S S S S S S S S
D#|-2h3-----3---3-(3)-----3---------|-0h2------3p=2---0h2-------3p2------|
A#|-----0-------3-(3)---3---3-------|-----3---------3-----3---3-----3----|
F#|-------0-----0-(0)-0-------0---0-|-------2---------------2---------2--|
C#|-2---------------------------0---|-0----------------------------------|
G#|-------------3-(3)---------------|------------------------------------|
D#|---------------------------------|------------------------------------|

  | (Gtr 2)
  | E   S S S S E +S  E   S E   S S   E.    S +S  S E   S E   S E   S S
D#|-------0-0-0-0-(0)-0---0-0---0---|-0-----0-(0)-0-0---0-0---0-0---0-0--|
A#|-------0-0-0-1-(1)-1---1-1---1-0-|-3-----3-(3)-3-3---3-3---3-3---3-3--|
F#|-------0-0-0-0-(0)-0---0-0---0-0-|-2-----2-(2)-2-2---2-2---2-2---2-2--|
C#|-2---2-2-2-2-2-(2)-2---2-2---2-0-|-0-----0-(0)-0-0---0-0---0-0---0-0--|
G#|-2---2-------3-(3)-------3---3---|------------------------------------|
D#|-0---0---------------------------|------------------------------------|

[Verse 1] (x2)
(Gtr 1)
    S S S S E   E +S  S S S S S S S   S S S S E   E +S  S S S S S S S
D#|-2h3-----3---3-(3)-----3---------|-2h3-----3---3-(3)-----3----------|
A#|-----0-------3-(3)---3---3-------|-----0-------3-(3)---3---3--------|
F#|-------0-----0-(0)-0-------0---0-|-------0-----0-(0)-0-------0---0--|
C#|-2---------------------------0---|-2---------------------------0----|
G#|-------------3-(3)---------------|-------------3-(3)----------------|
D#|---------------------------------|----------------------------------|

  | (Gtr 2)
  | E   S S S S E +S  E   S E   S S   E   S S S S E +S  E   S E   S S
D#|-------0-0-0-0-(0)-0---0-0---0---|-------0-0-0-0-(0)-0---0-0---0----|
A#|-------0-0-0-1-(1)-1---1-1---1-0-|-------0-0-0-1-(1)-1---1-1---1-0--|
F#|-------0-0-0-0-(0)-0---0-0---0-0-|-------0-0-0-0-(0)-0---0-0---0-0--|
C#|-2---2-2-2-2-2-(2)-2---2-2---2-0-|-2---2-2-2-2-2-(2)-2---2-2---2-0--|
G#|-2---2-------3-(3)-------3---3---|-2---2-------3-(3)-------3---3----|
D#|-0---0---------------------------|-0---0----------------------------|

    (Gtr 1)
    S S S S E   E +S  S S S S S S S   S S S S  S  S S S S S S S S S S S
D#|-2h3-----3---3-(3)-----3---------|-0h2------3p=2---0h2-------3p2------|
A#|-----0-------3-(3)---3---3-------|-----3---------3-----3---3-----3----|
F#|-------0-----0-(0)-0-------0---0-|-------2---------------2---------2--|
C#|-2---------------------------0---|-0----------------------------------|
G#|-------------3-(3)---------------|------------------------------------|
D#|---------------------------------|------------------------------------|

  | (Gtr 2)
  | E   S S S S E +S  E   S E   S S   E.    S +S  S E   S E   S E   S S
D#|-------0-0-0-0-(0)-0---0-0---0---|-0-----0-(0)-0-0---0-0---0-0---0-0--|
A#|-------0-0-0-1-(1)-1---1-1---1-0-|-3-----3-(3)-3-3---3-3---3-3---3-3--|
F#|-------0-0-0-0-(0)-0---0-0---0-0-|-2-----2-(2)-2-2---2-2---2-2---2-2--|
C#|-2---2-2-2-2-2-(2)-2---2-2---2-0-|-0-----0-(0)-0-0---0-0---0-0---0-0--|
G#|-2---2-------3-(3)-------3---3---|------------------------------------|
D#|-0---0---------------------------|------------------------------------|

[Chorus 1]
    (Gtr 1)
    S S S S S S E +E    S S S S S S   S S S S S S E +E    S S S S S S
D#|---------------------------------|---------------------------------|
A#|---------------------------------|---------------------------------|
F#|-5-5-5-5-5-5-------------7-7-7-7-|-5-5-5-5-5-5-------------7-7-7-7-|
C#|-5-5-5-5-5-5-2-(2)---2-2-7-7-7-7-|-5-5-5-5-5-5-2-(2)---2-2-7-7-7-7-|
G#|-3-3-3-3-3-3-2-(2)---2-2-5-5-5-5-|-3-3-3-3-3-3-2-(2)---2-2-5-5-5-5-|
D#|-------------0-(0)---0-0---------|-------------0-(0)---0-0---------|

  | (Gtr 2)
  | E   S S S S E +S  E   S E   S S   E   S S S S E +S  E   S E   S S
D#|-------0-0-0-------0---0-0---0---|-------0-0-0-------0---0-0---0---|
A#|-1---1-1-1-1-------0---0-1---1-0-|-1---1-1-1-1-------0---0-1---1-0-|
F#|-0---0-0-0-0-0-(0)-0---0-0---0-0-|-0---0-0-0-0-0-(0)-0---0-0---0-0-|
C#|-2---2-2-2-2-2-(2)-0---0-2---2-0-|-2---2-2-2-2-2-(2)-0---0-2---2-0-|
G#|-3---3-------2-(2)-------3---3---|-3---3-------2-(2)-------3---3---|
D#|-3---3-------0-(0)---------------|-3---3-------0-(0)---------------|

    (Gtr 1)
    S S S S S S E +E    S S S S S S   S S S S S S E +S E. e  E
D#|---------------------------------|--------------------<12>---|
A#|---------------------------------|--------------------<12>---|
F#|-5-5-5-5-5-5-------------7-7-7-7-|-5-5-5-5-5-5---------------|
C#|-5-5-5-5-5-5-2-(2)---2-2-7-7-7-7-|-5-5-5-5-5-5-2-(2)---------|
G#|-3-3-3-3-3-3-2-(2)---2-2-5-5-5-5-|-3-3-3-3-3-3-2-(2)---------|
D#|-------------0-(0)---0-0---------|-------------0-(0)---------|

  | (Gtr 2)
  | E   S S S S E +S  E   S E   S S   E   S S S S E +Q      Q
D#|-------0-0-0-------0---0-0---0---|-------0-0-0---------------|
A#|-1---1-1-1-1-------0---0-1---1-0-|-1---1-1-1-1---------------|
F#|-0---0-0-0-0-0-(0)-0---0-0---0-0-|-0---0-0-0-0-0-(0)---------|
C#|-2---2-2-2-2-2-(2)-0---0-2---2-0-|-2---2-2-2-2-2-(2)---------|
G#|-3---3-------2-(2)-------3---3---|-3---3-------2-(2)---------|
D#|-3---3-------0-(0)---------------|-3---3-------0-(0)---------|

[Break] 
(Gtr 1)
    S S S S E   E +S  S S S S S S S   S S S S E   E +S  S S S S S S S
D#|-2h3-----3---3-(3)-----3---------|-2h3-----3---3-(3)-----3----------|
A#|-----0-------3-(3)---3---3-------|-----0-------3-(3)---3---3--------|
F#|-------0-----0-(0)-0-------0---0-|-------0-----0-(0)-0-------0---0--|
C#|-2---------------------------0---|-2---------------------------0----|
G#|-------------3-(3)---------------|-------------3-(3)----------------|
D#|---------------------------------|----------------------------------|

  | (Gtr 2)
  | E   S S S S E +S  E   S E   S S   E   S S S S E +S  E   S E   S S
D#|-------0-0-0-0-(0)-0---0-0---0---|-------0-0-0-0-(0)-0---0-0---0----|
A#|-------0-0-0-1-(1)-1---1-1---1-0-|-------0-0-0-1-(1)-1---1-1---1-0--|
F#|-------0-0-0-0-(0)-0---0-0---0-0-|-------0-0-0-0-(0)-0---0-0---0-0--|
C#|-2---2-2-2-2-2-(2)-2---2-2---2-0-|-2---2-2-2-2-2-(2)-2---2-2---2-0--|
G#|-2---2-------3-(3)-------3---3---|-2---2-------3-(3)-------3---3----|
D#|-0---0---------------------------|-0---0----------------------------|

    (Gtr 1)
    S S S S E   E +S  S S S S S S S   S S S S  S  S S S S S S S S S S S
D#|-2h3-----3---3-(3)-----3---------|-0h2------3p=2---0h2-------3p2------|
A#|-----0-------3-(3)---3---3-------|-----3---------3-----3---3-----3----|
F#|-------0-----0-(0)-0-------0---0-|-------2---------------2---------2--|
C#|-2---------------------------0---|-0----------------------------------|
G#|-------------3-(3)---------------|------------------------------------|
D#|---------------------------------|------------------------------------|

  | (Gtr 2)
  | E   S S S S E +S  E   S E   S S   E.    S +S  S E   S E   S E   S S
D#|-------0-0-0-0-(0)-0---0-0---0---|-0-----0-(0)-0-0---0-0---0-0---0-0--|
A#|-------0-0-0-1-(1)-1---1-1---1-0-|-3-----3-(3)-3-3---3-3---3-3---3-3--|
F#|-------0-0-0-0-(0)-0---0-0---0-0-|-2-----2-(2)-2-2---2-2---2-2---2-2--|
C#|-2---2-2-2-2-2-(2)-2---2-2---2-0-|-0-----0-(0)-0-0---0-0---0-0---0-0--|
G#|-2---2-------3-(3)-------3---3---|------------------------------------|
D#|-0---0---------------------------|------------------------------------|

[Verse 2] (x2)
(Gtr 1)
    S S S S E   E +S  S S S S S S S   S S S S E   E +S  S S S S S S S
D#|-2h3-----3---3-(3)-----3---------|-2h3-----3---3-(3)-----3----------|
A#|-----0-------3-(3)---3---3-------|-----0-------3-(3)---3---3--------|
F#|-------0-----0-(0)-0-------0---0-|-------0-----0-(0)-0-------0---0--|
C#|-2---------------------------0---|-2---------------------------0----|
G#|-------------3-(3)---------------|-------------3-(3)----------------|
D#|---------------------------------|----------------------------------|

  | (Gtr 2)
  | E   S S S S E +S  E   S E   S S   E   S S S S E +S  E   S E   S S
D#|-------0-0-0-0-(0)-0---0-0---0---|-------0-0-0-0-(0)-0---0-0---0----|
A#|-------0-0-0-1-(1)-1---1-1---1-0-|-------0-0-0-1-(1)-1---1-1---1-0--|
F#|-------0-0-0-0-(0)-0---0-0---0-0-|-------0-0-0-0-(0)-0---0-0---0-0--|
C#|-2---2-2-2-2-2-(2)-2---2-2---2-0-|-2---2-2-2-2-2-(2)-2---2-2---2-0--|
G#|-2---2-------3-(3)-------3---3---|-2---2-------3-(3)-------3---3----|
D#|-0---0---------------------------|-0---0----------------------------|

    (Gtr 1)
    S S S S E   E +S  S S S S S S S   S S S S  S  S S S S S S S S S S S
D#|-2h3-----3---3-(3)-----3---------|-0h2------3p=2---0h2-------3p2------|
A#|-----0-------3-(3)---3---3-------|-----3---------3-----3---3-----3----|
F#|-------0-----0-(0)-0-------0---0-|-------2---------------2---------2--|
C#|-2---------------------------0---|-0----------------------------------|
G#|-------------3-(3)---------------|------------------------------------|
D#|---------------------------------|------------------------------------|

  | (Gtr 2)
  | E   S S S S E +S  E   S E   S S   E.    S +S  S E   S E   S E   S S
D#|-------0-0-0-0-(0)-0---0-0---0---|-0-----0-(0)-0-0---0-0---0-0---0-0--|
A#|-------0-0-0-1-(1)-1---1-1---1-0-|-3-----3-(3)-3-3---3-3---3-3---3-3--|
F#|-------0-0-0-0-(0)-0---0-0---0-0-|-2-----2-(2)-2-2---2-2---2-2---2-2--|
C#|-2---2-2-2-2-2-(2)-2---2-2---2-0-|-0-----0-(0)-0-0---0-0---0-0---0-0--|
G#|-2---2-------3-(3)-------3---3---|------------------------------------|
D#|-0---0---------------------------|------------------------------------|

[Chorus 2] (x2)
    (Gtr 1)
    S S S S S S E +E    S S S S S S   S S S S S S E +E    S S S S S S
D#|---------------------------------|---------------------------------|
A#|---------------------------------|---------------------------------|
F#|-5-5-5-5-5-5-------------7-7-7-7-|-5-5-5-5-5-5-------------7-7-7-7-|
C#|-5-5-5-5-5-5-2-(2)---2-2-7-7-7-7-|-5-5-5-5-5-5-2-(2)---2-2-7-7-7-7-|
G#|-3-3-3-3-3-3-2-(2)---2-2-5-5-5-5-|-3-3-3-3-3-3-2-(2)---2-2-5-5-5-5-|
D#|-------------0-(0)---0-0---------|-------------0-(0)---0-0---------|

  | (Gtr 2)
  | E   S S S S E +S  E   S E   S S   E   S S S S E +S  E   S E   S S
D#|-------0-0-0-------0---0-0---0---|-------0-0-0-------0---0-0---0---|
A#|-1---1-1-1-1-------0---0-1---1-0-|-1---1-1-1-1-------0---0-1---1-0-|
F#|-0---0-0-0-0-0-(0)-0---0-0---0-0-|-0---0-0-0-0-0-(0)-0---0-0---0-0-|
C#|-2---2-2-2-2-2-(2)-0---0-2---2-0-|-2---2-2-2-2-2-(2)-0---0-2---2-0-|
G#|-3---3-------2-(2)-------3---3---|-3---3-------2-(2)-------3---3---|
D#|-3---3-------0-(0)---------------|-3---3-------0-(0)---------------|

    (Gtr 1)
    S S S S S S E +E    S S S S S S   S S S S S S E +S E. e  E
D#|---------------------------------|---------------------------|
A#|---------------------------------|---------------------------|
F#|-5-5-5-5-5-5-------------7-7-7-7-|-5-5-5-5-5-5---------------|
C#|-5-5-5-5-5-5-2-(2)---2-2-7-7-7-7-|-5-5-5-5-5-5-2-(2)---------|
G#|-3-3-3-3-3-3-2-(2)---2-2-5-5-5-5-|-3-3-3-3-3-3-2-(2)---------|
D#|-------------0-(0)---0-0---------|-------------0-(0)---------|

  | (Gtr 2)
  | E   S S S S E +S  E   S E   S S   E   S S S S E +Q      Q
D#|-------0-0-0-------0---0-0---0---|-------0-0-0---------------|
A#|-1---1-1-1-1-------0---0-1---1-0-|-1---1-1-1-1---------------|
F#|-0---0-0-0-0-0-(0)-0---0-0---0-0-|-0---0-0-0-0-0-(0)---------|
C#|-2---2-2-2-2-2-(2)-0---0-2---2-0-|-2---2-2-2-2-2-(2)---------|
G#|-3---3-------2-(2)-------3---3---|-3---3-------2-(2)---------|
D#|-3---3-------0-(0)---------------|-3---3-------0-(0)---------|

    (Gtr 1)
    S S S S S S E +E    S S S S S S   S S S S S S E +E    S S S S S S
D#|---------------------------------|---------------------------------|
A#|---------------------------------|---------------------------------|
F#|-5-5-5-5-5-5-------------7-7-7-7-|-5-5-5-5-5-5-------------7-7-7-7-|
C#|-5-5-5-5-5-5-2-(2)---2-2-7-7-7-7-|-5-5-5-5-5-5-2-(2)---2-2-7-7-7-7-|
G#|-3-3-3-3-3-3-2-(2)---2-2-5-5-5-5-|-3-3-3-3-3-3-2-(2)---2-2-5-5-5-5-|
D#|-------------0-(0)---0-0---------|-------------0-(0)---0-0---------|
|
  | (Gtr 2)
  | E   S S S S E +S  E   S E   S S   E   S S S S E +S  E   S E   S S
D#|-------0-0-0-------0---0-0---0---|-------0-0-0-------0---0-0---0---|
A#|-1---1-1-1-1-------0---0-1---1-0-|-1---1-1-1-1-------0---0-1---1-0-|
F#|-0---0-0-0-0-0-(0)-0---0-0---0-0-|-0---0-0-0-0-0-(0)-0---0-0---0-0-|
C#|-2---2-2-2-2-2-(2)-0---0-2---2-0-|-2---2-2-2-2-2-(2)-0---0-2---2-0-|
G#|-3---3-------2-(2)-------3---3---|-3---3-------2-(2)-------3---3---|
D#|-3---3-------0-(0)---------------|-3---3-------0-(0)---------------|

    (Gtr 1)
    S S S S S S E +E    S S S S S S   S S S S S S E +E    S S S S S S
D#|---------------------------------|---------------------------------|
A#|---------------------------------|---------------------------------|
F#|-5-5-5-5-5-5-------------7-7-7-7-|-5-5-5-5-5-5-------------7-7-7-7-|
C#|-5-5-5-5-5-5-2-(2)---2-2-7-7-7-7-|-5-5-5-5-5-5-2-(2)---2-2-7-7-7-7-|
G#|-3-3-3-3-3-3-2-(2)---2-2-5-5-5-5-|-3-3-3-3-3-3-2-(2)---2-2-5-5-5-5-|
D#|-------------0-(0)---0-0---------|-------------0-(0)---0-0---------|
|
  | (Gtr 2)
  | E   S S S S E +S  E   S E   S S   E   S S S S E +S  E   S E   S S
D#|-------0-0-0-------0---0-0---0---|-------0-0-0-------0---0-0---0---|
A#|-1---1-1-1-1-------0---0-1---1-0-|-1---1-1-1-1-------0---0-1---1-0-|
F#|-0---0-0-0-0-0-(0)-0---0-0---0-0-|-0---0-0-0-0-0-(0)-0---0-0---0-0-|
C#|-2---2-2-2-2-2-(2)-0---0-2---2-0-|-2---2-2-2-2-2-(2)-0---0-2---2-0-|
G#|-3---3-------2-(2)-------3---3---|-3---3-------2-(2)-------3---3---|
D#|-3---3-------0-(0)---------------|-3---3-------0-(0)---------------|

[Solo] 
(Gtr 1)

 (Gtr 1)
    S S S S E   E +S  S S S S S S S   S S S S E   E +S  S S S S S S S
D#|-2h3-----3---3-(3)-----3---------|-2h3-----3---3-(3)-----3----------|
A#|-----0-------3-(3)---3---3-------|-----0-------3-(3)---3---3--------|
F#|-------0-----0-(0)-0-------0---0-|-------0-----0-(0)-0-------0---0--|
C#|-2---------------------------0---|-2---------------------------0----|
G#|-------------3-(3)---------------|-------------3-(3)----------------|
D#|---------------------------------|----------------------------------|

  | (Gtr 2)
  | E   S S S S E +S  E   S E   S S   E   S S S S E +S  E   S E   S S
D#|-------0-0-0-0-(0)-0---0-0---0---|-------0-0-0-0-(0)-0---0-0---0----|
A#|-------0-0-0-1-(1)-1---1-1---1-0-|-------0-0-0-1-(1)-1---1-1---1-0--|
F#|-------0-0-0-0-(0)-0---0-0---0-0-|-------0-0-0-0-(0)-0---0-0---0-0--|
C#|-2---2-2-2-2-2-(2)-2---2-2---2-0-|-2---2-2-2-2-2-(2)-2---2-2---2-0--|
G#|-2---2-------3-(3)-------3---3---|-2---2-------3-(3)-------3---3----|
D#|-0---0---------------------------|-0---0----------------------------|

    (Gtr 1)
    S S S S E   E +S  S S S S S S S   S S S S  S  S S S S S S S S S S S
D#|-2h3-----3---3-(3)-----3---------|-0h2------3p=2---0h2-------3p2------|
A#|-----0-------3-(3)---3---3-------|-----3---------3-----3---3-----3----|
F#|-------0-----0-(0)-0-------0---0-|-------2---------------2---------2--|
C#|-2---------------------------0---|-0----------------------------------|
G#|-------------3-(3)---------------|------------------------------------|
D#|---------------------------------|------------------------------------|

  | (Gtr 2)
  | E   S S S S E +S  E   S E   S S   E.    S +S  S E   S E   S E   S S
D#|-------0-0-0-0-(0)-0---0-0---0---|-0-----0-(0)-0-0---0-0---0-0---0-0--|
A#|-------0-0-0-1-(1)-1---1-1---1-0-|-3-----3-(3)-3-3---3-3---3-3---3-3--|
F#|-------0-0-0-0-(0)-0---0-0---0-0-|-2-----2-(2)-2-2---2-2---2-2---2-2--|
C#|-2---2-2-2-2-2-(2)-2---2-2---2-0-|-0-----0-(0)-0-0---0-0---0-0---0-0--|
G#|-2---2-------3-(3)-------3---3---|------------------------------------|
D#|-0---0---------------------------|------------------------------------|

    (Gtr 3)
    S S S S E   E +S  E.     S S E     E.    E.     E.     Q..
D#|----------------------------------|-------------------------------------|
A#|----------------------------------|--------------3----------------------|
F#|-------------0-(0)--------0---0---|-------0-------------0---------------|
C#|-------0h2---------4--------------|-2-----------------------------------|
G#|---0h2----------------------2-----|-------------------------------------|
D#|-0--------------------------------|-------------------------------------|

    (Gtr 3)
    S S S S E   E +S  E.     S S S S   Q.            E.     E   S S S +S  S
D#|----------------------------------|---------------0-----------------------|
A#|----------------------------------|-0--------------------3-------0-(0)----|
F#|-------------0-(0)--------0---0h2-|--------------------------2-2----------|
C#|-------0h2---------4--------4-----|---------------------------------------|
G#|---0h2----------------------------|---------------------------------------|
D#|-0--------------------------------|---------------------------------------|

(This part changes a little, so I'll write in (Gtr 1) & II again.)

    (Gtr 1)
    S S S S  E    E +S  S S S S S S S   S S S S  E    E +S  S S S S S S S
D#|-2h3------3----3-(3)-----3---------|-2h3------3----3-(3)-----3-----------|
A#|-----0---------3-(3)---3---3-------|-----0---------3-(3)---3---3---------|
F#|-------0-------0-(0)-0-------0---0-|-------0-------0-(0)-0-------0---0---|
C#|-2-----------------------------0---|-2-----------------------------0-----|
G#|---------------3-(3)---------------|---------------3-(3)-----------------|
D#|-----------------------------------|-------------------------------------|
|
  | (Gtr 2)
  | E   S S  S  S E +S  E   S E   S S   E   S S  S  S E +S  E   S E   S S
D#|-------0--0--0-0-(0)-0---0-0---0---|-------0--0--0-0-(0)-0---0-0---0-----|
A#|-------0--0--0-1-(1)-1---1-1---1-0-|-------0--0--0-1-(1)-1---1-1---1-0---|
F#|-------0--0--0-0-(0)-0---0-0---0-0-|-------0--0--0-0-(0)-0---0-0---0-0---|
C#|-2---2-2--2--2-2-(2)-2---2-2---2-0-|-2---2-2--2--2-2-(2)-2---2-2---2-0---|
G#|-2---2---------3-(3)-------3---3---|-2---2---------3-(3)-------3---3-----|
D#|-0---0-----------------------------|-0---0-------------------------------|

  | (Gtr 3)
  | E.    S +E    E +H                  E.    S +E    E +H
D#|-0---------------------------------|-0-----------------------------------|
A#|-------0-(0)-----------------------|-------0-(0)-------------------------|
F#|---------------0-(0)---------------|---------------0-(0)-----------------|
C#|-----------------------------------|-------------------------------------|
G#|-----------------------------------|-------------------------------------|
D#|-----------------------------------|-------------------------------------|

    (Gtr 1)
    S S S S  E    E +S  S S S S S S S    E.  S  +E   E  +H
D#|-2h3------3----3-(3)-----3---------|--2---------------------|
A#|-----0---------3-(3)---3---3-------|------3--(3)------------|
F#|-------0-------0-(0)-0-------0---0-|--------------2--(2)----|
C#|-2-----------------------------0---|------------------------|
G#|---------------3-(3)---------------|------------------------|
D#|-----------------------------------|------------------------|

  | (Gtr 2)
  | E   S S  S  S E +S  E   S E   S S    W
D#|-------0--0--0-0-(0)-0---0-0---0---|--0---------------------|
A#|-------0--0--0-1-(1)-1---1-1---1-0-|--3---------------------|
F#|-------0--0--0-0-(0)-0---0-0---0-0-|--2---------------------|
C#|-2---2-2--2--2-2-(2)-2---2-2---2-0-|--0---------------------|
G#|-2---2---------3-(3)-------3---3---|------------------------|
D#|-0---0-----------------------------|------------------------|

  | (Gtr 3)
  | E.    S +E    E +H                   E.  S  +E   E  +H
D#|-0---------------------------------|-14---------------------|
A#|-------0-(0)-----------------------|-----15-(15)------------|
F#|---------------0-(0)---------------|-------------14-(14)----|
C#|-----------------------------------|------------------------|
G#|-----------------------------------|------------------------|
D#|-----------------------------------|------------------------|

[Chorus 3] 
(You could just play Chorus 2 over again here, but I find it's more fun with 
mutes.  Improv on the strumming how you wish.)

      (Gtr 1)
      S S S S S S E +E    S S S S S S   S S S S S S E +E    S S S S S S
D#|----------------------------------|----------------------------------|
A#|o---------------------------------|----------------------------------|
F#|--5-5-5-5-x-5-------------7-x-7-7-|-5-5-5-5-x-5-------------7-x-7-7--|
C#|--5-5-5-5-x-5-2-(2)---2-2-7-x-7-7-|-5-5-5-5-x-5-2-(2)---2-2-7-x-7-7--|
G#|o-3-3-3-3-x-3-2-(2)---2-2-5-x-5-5-|-3-3-3-3-x-3-2-(2)---2-2-5-x-5-5--|
D#|--------------0-(0)---0-0---------|-------------0-(0)---0-0----------|

  |   (Gtr 2)
  |   E   S S S S E +S  E   S E   S S   E   S S S S E +S  E   S E   S S
D#|--------0-0-0-------0---0-0---0---|-------0-0-0-------0---0-0---0----|
A#|o-1---1-1-1-1-------0---0-1---1-0-|-1---1-1-1-1-------0---0-1---1-0--|
F#|--0---0-0-0-0-0-(0)-0---0-0---0-0-|-0---0-0-0-0-0-(0)-0---0-0---0-0--|
C#|--2---2-2-2-2-2-(2)-0---0-2---2-0-|-2---2-2-2-2-2-(2)-0---0-2---2-0--|
G#|o-3---3-------2-(2)-------3---3---|-3---3-------2-(2)-------3---3----|
D#|--3---3-------0-(0)---------------|-3---3-------0-(0)----------------|

  |   (Gtr 3)
  |   S S S S S S E +E    S S S S S S   S S S S S S E +E    S S S S S S
D#|----------------------------------|----------------------------------|
A#|o---------------------------------|----------------------------------|
F#|--5-5-5-5-x-5-------------7-x-7-7-|-5-5-5-5-x-5-------------7-x-7-7--|
C#|--5-5-5-5-x-5-2-(2)---2-2-7-x-7-7-|-5-5-5-5-x-5-2-(2)---2-2-7-x-7-7--|
G#|o-3-3-3-3-x-3-2-(2)---2-2-5-x-5-5-|-3-3-3-3-x-3-2-(2)---2-2-5-x-5-5--|
D#|--------------0-(0)---0-0---------|-------------0-(0)---0-0----------|

    (Gtr 1)
    S S S S S S E +E    S S S S S S   S S S S S S E +E     S  S  S  S  S  S
D#|---------------------------------|----------------------------------------|
A#|---------------------------------|---------------------------------------o|
F#|-5-5-5-x-5-5-------------7-x-7-7-|-5-5-5-5-x-5----------------7--x--7--7--|
C#|-5-5-5-x-5-5-2-(2)---2-2-7-x-7-7-|-5-5-5-5-x-5-2-(2)----2--2--7--x--7--7--|
G#|-3-3-3-x-3-3-2-(2)---2-2-5-x-5-5-|-3-3-3-3-x-3-2-(2)----2--2--5--x--5--5-o|
D#|-------------0-(0)---0-0---------|-------------0-(0)----0--0--------------|

  | (Gtr 2)
  | E   S S S S E +S  E   S E   S S   E   S S S S E +S  E     S  E     S  S
D#|-------0-0-0-------0---0-0---0---|-------0-0-0-------0-----0--0-----0-----|
A#|-1---1-1-1-1-------0---0-1---1-0-|-1---1-1-1-1-------0-----0--1-----1--0-o|
F#|-0---0-0-0-0-0-(0)-0---0-0---0-0-|-0---0-0-0-0-0-(0)-0-----0--0-----0--0--|
C#|-2---2-2-2-2-2-(2)-0---0-2---2-0-|-2---2-2-2-2-2-(2)-0-----0--2-----2--0--|
G#|-3---3-------2-(2)-------3---3---|-3---3-------2-(2)----------3-----3----o|
D#|-3---3-------0-(0)---------------|-3---3-------0-(0)----------------------|

  | (Gtr 3)
  | S S S S S S E +E    S S S S S S   H              S  S  S  S  S  S  S  S
D#|---------------------------------|---------------15p14----15p14-------14--|
A#|---------------------------------|---------------------15-------15-17----o|
F#|-5-5-5-5-x-5-------------7-x-7-7-|----------------------------------------|
C#|-5-5-5-5-x-5-2-(2)---2-2-7-x-7-7-|----------------------------------------|
G#|-3-3-3-3-x-3-2-(2)---2-2-5-x-5-5-|---------------------------------------o|
D#|-------------0-(0)---0-0---------|----------------------------------------|

[Strings Solo] 
((Gtr 1) & II continue playing Chorus 3 again 1x.)

    (Gtr 3)
     S  S  S  S  S  S  S  S  S  S  S  S  S  S  S  S
D#|-15p14----15p14----15p14-15p14----17-15p14----14-|
A#|-------15-------15-------------15----------17----|
F#|-------------------------------------------------|
C#|-------------------------------------------------|
G#|-------------------------------------------------|
D#|-------------------------------------------------|

    (Gtr 3)
     S  S  S  S  S  S  S  S  S  S  S  S  S  S  S  S
D#|-15p14----15p14----15p14-15p14----17-15p14----14-|
A#|-------15-------15-------------15----------17----|
F#|-------------------------------------------------|
C#|-------------------------------------------------|
G#|-------------------------------------------------|
D#|-------------------------------------------------|

    (Gtr 3)
     S  S  S  S  S  S  S  S  S  S  S  S  S  S  S  S
D#|-15p14----15p14----15p14-15p14----17-15p14----14-|
A#|-------15-------15-------------15----------17----|
F#|-------------------------------------------------|
C#|-------------------------------------------------|
G#|-------------------------------------------------|
D#|-------------------------------------------------|

    (Gtr 3)
     S  S  S  S  S  S  E  +H
D#|-15p14----15p14---------------------------|
A#|-------15-------15-17-(17)----------------|
F#|------------------------------------------|
C#|------------------------------------------|
G#|------------------------------------------|
D#|------------------------------------------|

[Chorus Reprise] 
(Maybe I'm being a little redundant - but just in case someone forgets 
the   chorus riff goes.)

    (Gtr 1)
    S  S S S S S E  +E    S S  S S S S   S  S S S S S E  +E    S S  S S S S
D#|------------------------------------|------------------------------------|
A#|------------------------------------|------------------------------------|
F#|-5--5-5-5-x-5---------------7-x-7-7-|-5--5-5-5-x-5---------------7-x-7-7-|
C#|-5--5-5-5-x-5-2--(2)---2-2--7-x-7-7-|-5--5-5-5-x-5-2--(2)---2-2--7-x-7-7-|
G#|-3--3-3-3-x-3-2--(2)---2-2--5-x-5-5-|-3--3-3-3-x-3-2--(2)---2-2--5-x-5-5-|
D#|--------------0--(0)---0-0----------|--------------0--(0)---0-0----------|
|
  | (Gtr 2)
  | E    S S S S E  +S  E   S  E   S S   E    S S S S E  +S  E   S  E   S S
D#|--------0-0-0--------0---0--0---0---|--------0-0-0--------0---0--0---0---|
A#|-1----1-1-1-1--------0---0--1---1-0-|-1----1-1-1-1--------0---0--1---1-0-|
F#|-0----0-0-0-0-0--(0)-0---0--0---0-0-|-0----0-0-0-0-0--(0)-0---0--0---0-0-|
C#|-2----2-2-2-2-2--(2)-0---0--2---2-0-|-2----2-2-2-2-2--(2)-0---0--2---2-0-|
G#|-3----3-------2--(2)--------3---3---|-3----3-------2--(2)--------3---3---|
D#|-3----3-------0--(0)----------------|-3----3-------0--(0)----------------|
|
  | (Gtr 3)
  | Q.           E.     S S S  S S S S   Q.           E.     S S S  S S S S
D#|---------------------------10-------|---------------------------10-------|
A#|--------------7------8p7h8----8p7h8-|--------------7------8p7h8----8p7h8-|
F#|------------------------------------|------------------------------------|
C#|------------------------------------|------------------------------------|
G#|------------------------------------|------------------------------------|
D#|------------------------------------|------------------------------------|

    (Gtr 1)
    S  S S S S S E  +E    S S  S S S S   S  S S S  S  S E +H
D#|------------------------------------|------------------------------|
A#|------------------------------------|------------------------------|
F#|-5--5-5-5-x-5---------------7-x-7-7-|-5--5-5-5--x--5---------------|
C#|-5--5-5-5-x-5-2--(2)---2-2--7-x-7-7-|-5--5-5-5--x--5-2-(2)---------|
G#|-3--3-3-3-x-3-2--(2)---2-2--5-x-5-5-|-3--3-3-3--x--3-2-(2)---------|
D#|--------------0--(0)---0-0----------|----------------0-(0)---------|

  | (Gtr 2)
  | E    S S S S E  +S  E   S  E   S S   E    S S  S  S E +Q     Q
D#|--------0-0-0--------0---0--0---0---|--------0--0--0---------------|
A#|-1----1-1-1-1--------0---0--1---1-0-|-1----1-1--1--1---------------|
F#|-0----0-0-0-0-0--(0)-0---0--0---0-0-|-0----0-0--0--0-0-(0)---------|
C#|-2----2-2-2-2-2--(2)-0---0--2---2-0-|-2----2-2--2--2-2-(2)---------|
G#|-3----3-------2--(2)--------3---3---|-3----3---------2-(2)---------|
D#|-3----3-------0--(0)----------------|-3----3---------0-(0)---------|

  | (Gtr 3)
  | Q.           E.     S S S  S S S S   Q.     E +H
D#|---------------------------10-------|-0------0-(0)-----------------|
A#|--------------7------8p7h8----8p7h8-|-1------0-(0)-----------------|
F#|------------------------------------|-0------0-(0)-----------------|
C#|------------------------------------|-2------2-(2)-----------------|
G#|------------------------------------|-3------2-(2)-----------------|
D#|------------------------------------|-3------0-(0)-----------------|

[Outro] 
(Intro + (Gtr 3)
    (Gtr 1)
    S S S S  E    E +S  S S S S S S S   S S S S  E    E +S  S S S S S S S
D#|-2h3------3----3-(3)-----3---------|-2h3------3----3-(3)-----3---------|
A#|-----0---------3-(3)---3---3-------|-----0---------3-(3)---3---3-------|
F#|-------0-------0-(0)-0-------0---0-|-------0-------0-(0)-0-------0---0-|
C#|-2-----------------------------0---|-2-----------------------------0---|
G#|---------------3-(3)---------------|---------------3-(3)---------------|
D#|-----------------------------------|-----------------------------------|

  | (Gtr 2)
  | E   S S  S  S E +S  E   S E   S S   E   S S  S  S E +S  E   S E   S S
D#|-------0--0--0-0-(0)-0---0-0---0---|-------0--0--0-0-(0)-0---0-0---0---|
A#|-------0--0--0-1-(1)-1---1-1---1-0-|-------0--0--0-1-(1)-1---1-1---1-0-|
F#|-------0--0--0-0-(0)-0---0-0---0-0-|-------0--0--0-0-(0)-0---0-0---0-0-|
C#|-2---2-2--2--2-2-(2)-2---2-2---2-0-|-2---2-2--2--2-2-(2)-2---2-2---2-0-|
G#|-2---2---------3-(3)-------3---3---|-2---2---------3-(3)-------3---3---|
D#|-0---0-----------------------------|-0---0-----------------------------|

  | E.    S +E    E +H                  E.    S +E    E +H
D#|-0---------------------------------|-0---------------------------------|
A#|-------0-(0)-----------------------|-------0-(0)-----------------------|
F#|---------------0-(0)---------------|---------------0-(0)---------------|
C#|-----------------------------------|-----------------------------------|
G#|-----------------------------------|-----------------------------------|
D#|-----------------------------------|-----------------------------------|

    (Gtr 1)
    S S S S E     E +S  S S S S S S S    E.  S  +E   E  +H           W
D#|-2h3-----3-----3-(3)-----3---------|--2-------------------------|-0----*|
A#|-----0---------3-(3)---3---3-------|------3--(3)----------------|-0----*|
F#|-------0-------0-(0)-0-------0---0-|--------------2--(2)--------|-0----*|
C#|-2-----------------------------0---|----------------------------|-2----*|
G#|---------------3-(3)---------------|----------------------------|-2----*|
D#|-----------------------------------|----------------------------|-0----*|

  | (Gtr 2)
  | E   S S S  S  E +S  E   S E   S S    H               S  E S Q    W
D#|-------0-0--0--0-(0)-0---0-0---0---|--0-------------------------|-0----*|
A#|-------0-0--0--1-(1)-1---1-1---1-0-|--3-------------------------|-0----*|
F#|-------0-0--0--0-(0)-0---0-0---0-0-|--2-------------------------|-0----*|
C#|-2---2-2-2--2--2-(2)-2---2-2---2-0-|--0---------------0h=2p0----|-2----*|
G#|-2---2---------3-(3)-------3---3---|-------------------------0--|-2----*|
D#|-0---0-----------------------------|----------------------------|-0----*|

  | E.      S +E  E +H                   E.  S  +E   E  +H           W
D#|-0---------------------------------|-14-------------------------|-0----*|
A#|---------0-(0)---------------------|-----15-(15)----------------|-0----*|
F#|---------------0-(0)---------------|-------------14-(14)--------|-0----*|
C#|-----------------------------------|----------------------------|-2----*|
G#|-----------------------------------|----------------------------|-2----*|
D#|-----------------------------------|----------------------------|-0----*|


************************************

| (n)  Ghost note
| h    Hammer-on
| p    Pull-off
| x    Dead note
| *    Natural harmonic
| W    whole
| H    half
| Q    quarter
| E    8th
| S    16th
| +    note tied to previous
| -    note dotted

************************************
Suggest correction
comments
print report bad tab
16 comments total. Showing first comments.
0 reply
buckethead101 130 Jan 06, 2005 07:00 PM

hey nice one ill give this 5 stars for the timing

0 reply
Teq 90 Jan 06, 2005 07:00 PM

really nice!!

0 reply
loudspeaker89 0 Jan 06, 2005 07:00 PM

Awsome Job

guest
You may want to rate the tab now too:
select rating
Wanna post a correction for this tab? Suggest correction