Oops, an error
Loading. Please wait.

Broken Tab

version 4
407,194 views 21 this week
3 commentsread comments
1 2 3 4 5
worth learning
x 13
add to favorites
launch autoscroll
font size
0
reset
how to read this tab
guitar tuner
Autoscroll
slow
fast
+/-
esc
set tempo
stop
Help us to improve Ultimate-Guitar.com Take our survey!
×
Difficulty
novice
                     Seether/ Feat Amy Lee
                             -BROKEN

   By Christopher S.
 Deadman16p@hotmail.com

         Its real easy

  1st part
  E--2h3-----3-------3-------3---|I
  B------0-----3---3---3---3-----|I
  G--------0-----0-------0-------|I Do This 3 Times
  D--2---------------------------|I
  A------------3-----------------|I
  E------------------------------|I
   2nd part
  E--2-2-------2-----2-------|I
  B------0---0-----0---------|I
  G--------0-----0-----------|I Do This 1 Time
  D--2-----------------------|I
  A--------------------------|I
  E--------------------------|I

   Then Repeat
   1st part
  E--2h3-----3-------3-------3---|I
  B------0-----3---3---3---3-----|I
  G--------0-----0-------0-------|I Do This 3 Times
  D--2---------------------------|I
  A------------3-----------------|I
  E------------------------------|I
   2nd part
  E--2-2-------2-----2-------|I
  B------0---0-----0---------|I
  G--------0-----0-----------|I Do This 1 Time
  D--2-----------------------|I
  A--------------------------|I
  E--------------------------|I

   This can be replaced for the 2nd part. But which ever u like.
  E--2-2-------2---2h3-------|I
  B------0---0---0-----------|I
  G--------0-----------------|I
  D--2-----------------------|I
  A--------------------------|I
  E--------------------------|I


  Your Fingers are numbered. from Thumb to pinky. thumb is thumb,
 then #1,#2,#3 and pinky is #4. This goes for both hands!!

 When doing the very beging hold D-string in 2nd Fret with #1 finger.
 And hold E-string in 2nd Fret with #2 finger, kind of like D chord, but
 your #1 finger is one string down.
Example of D-chord    Example of how to put your fingers
 E-2-|#2                 E-2-|#2  then 2h2     E-2h3-|#2 h #3 hit on with
 B-3-|#3                 B---|       Hit on    B-----|         your third
 G-2-|#1                 G---|                 G-----|          finger.
 D---|                   D-2-|#1               D-2---|
 A---|                   A---|                 A-----|
 E---|                   E---|                 E-----|

 Also when doing this USE Your Finger(do Finger Picking). Only hit the
Tabs writting down. Example, when you finger pick(using right hand of course) at the 
begining for the (E)2h2 use your #1 finger  and for the
 (G)2 use your Thumb and pick them both at the same time.
OR
If you don't like doing Finger picking then you can just use a Pick.  Just Make sure you 
the neccesary strings.
Suggest correction What's this?
You can suggest a correction to this tab. Community and Mods will review your correction and vote to approve or reject it.
comments
print report bad tab
3 comments total.
0 reply
twilitezelda 168 wrote on June 28 2009, 06:59 pm

You tabbed the D's wrong. They are hammer-ons, too.

0 reply
maddiew1324 24 wrote on December 18 2013, 04:55 pm

this is good but just tune guitar half step down! then itll b perfect

0 reply
redturtle1 14 wrote on February 8 2014, 02:16 pm

ahhhhhh! grammar!

I want to post or [tab]
guest
You may want to rate the tab now too:
select rating
Please do not post tabs as comments. Select "correction" instead!