Oops, an error
Loading. Please wait.
We have Chord Pro version of Broken.
It's the closest thing you can get to the original song and it has interactive parts. Check out the tab »
×

Broken Chords

version 6
version 6

Whole song

by Seether
5,206 views 402 this week
no commentswrite comment
1 2 3 4 5
1 last vote to show rating
add to favorites
launch autoscroll
font size
0
reset
transpose
0
reset
simplify chords
display chords
guitar tuner
Autoscroll
slow
fast
+/-
esc
set tempo
stop
Author
Difficulty
Tuning
novice
D# G# C# F# A# D#
About this tab version
This a more accurate representation of the live acoustic version arranged for a single guitar. Was this info helpful? Yes No
Strumming
There is no strumming pattern for this song yet. and get +5 IQ
Em7 022033
Cadd9 x32033
Dsus2 xx0230
Dsus4 xx0233
The Dsus2 and Dsus 4 transitions are mostly hammered on, best way to 
make it sound right is to listen to the song and try to match as you play

This is a simplified intro that still sounds close to the original, 
if you can't pick it just play the chords(doesn't sound quite right)
 or focus only on playing the notes on the 
high E string which are the most prominent in the song 

[Intro]
   Em7    C9  Em7    C9  Em7   C9   D2  D    D4  D D2 D
e|-2h3--3-3--2-2h3--3-3--2h3--3-3-2-0h2--2--3h2--2--0h2-|
B|------------------------------------------------------|
G|------------------------------------------------------|
D|-2-----------2---------2------------------------------|
A|--------3-----------3---------3-----------------------|
E|------------------------------------------------------|

Then tap 12th fret harmonics on e and B string

[Verse 1]
Em7       Cadd9       Em7            Cadd9
I wanted you to know that I love the way you laugh
Em7     Cadd9             D   Dsus2    D    Dsus4 D
I wanna hold you high and steal  your pain   awa-aay
Em7          Cadd9      Em7       Cadd9     
I keep your photograph; I know it serves me well
Em7      Cadd9            D    Dsus2  D   
I wanna hold you high and steal your pain
         
[Chorus]
Dsus4   D  Cadd9 Em7 D       Cadd9   Em7
Because I'm bro-ken when I'm looone-some
    D      Cadd9  Em7   D         Cadd9  Em7 
And I don't feel right when you’re gone Away
Cadd9   Em7                Cadd9 Em7
           You’ve gone away
               Cadd9 Em7           Dsus2 D Dsus4 D Dsus2 D
You don’t feel me      here anymore

[Verse 2]
Em7          Cadd9   Em7         Cadd9
The worst is over now and we can breathe again
Em7     Cadd9               D  Dsus2 D  Dsus4  D        
I wanna hold you high, you steal my pain awa-aaay
Em7             Cadd9        Em7          Cadd9
There's so much left to learn, and no one left to fight
Em7     Cadd9                D  Dsus2  D
I wanna hold you high and steal your pain

[Chorus]
Dsus4   D   Cadd9 Em7 D       Cadd9  Em7
Because I'm brooo-ken when I'm ooooo-pen
    D      Cadd9 Em7    D  Cadd9    Em7
And I don't feel like I am strong enough
        D   Cadd9  Em7  D       Cadd9    Em7
Because I'm broo-o-ken when I'm loo-one-some
    D      Cadd9  Em7  D           Cadd9  Em7
And I don't feel right when you're gone away

[Solo]
Play the intro again over the solo
   Em7    C9  Em7    C9  Em7   C9   D2  D    D4  D D2 D
e|-2h3--3-3--2-2h3--3-3--2h3--3-3-2-0h2--2--2h3--2--0h2-|
B|------------------------------------------------------|
G|------------------------------------------------------|
D|-2-----------2---------2------------------------------|
A|--------3-----------3---------3-----------------------|
E|------------------------------------------------------|

[Chorus]
             Cadd9 Em7 D       Cadd9  Em7
Because I'm brooo-ken when I'm ooooo-pen
    D      Cadd9 Em7    D  Cadd9    Em7
And I don't feel like I am strong enough
        D   Cadd9  Em7  D       Cadd9    Em7
Because I'm broo-o-ken when I'm loo-one-some
    D      Cadd9  Em7   D          Cadd9  Em7
And I don't feel Right when you're gone away

[Outro]
   Em7    C9          Em7    C9  
e|-2h3--3-3--2--------2h3--3-3--|
B|------------------------------|
G|------------------------------|
D|-2------------------2---------|
A|--------3------------------3--|
E|------------------------------|
          Your Gone Away      You dont feel me

   Em7    C9   D2  D    D4  D D2 D
e|-2h3--3-3---0h2--2--2h3--2--0h2-|
B|--------------------------------|
G|--------------------------------|
D|-2------------------------------|
A|--------3-----------------------|
E|--------------------------------|
   here   Anymore   (End on Em)
Suggest correction
Give kudos to tab author, rate the tab!
1 2 3 4 5
comments
print report bad tab
guest
You may want to rate the tab now too:
select rating
Wanna post a correction for this tab? Suggest correction