Oops, an error
Loading. Please wait.

Broken Tab

version 7
52,656 views 21 this week
5 commentsread comments
1 2 3 4 5
accurate
x 8
add to favorites
launch autoscroll
font size
0
reset
how to read this tab
guitar tuner
Autoscroll
slow
fast
+/-
esc
set tempo
stop
Help us to improve Ultimate-Guitar.com Take our survey!
×
Contributor
Vulgar101 316
Broken by Seether
Tabbed by Vulgar101

It is 100% correct.
You should be able to get most of the rhythm from this and the song itself.

Update:  09-18-04
Adjusted the spacing in the solo.


Acoustic I Intro and Verse
                                                                   
E||--2-3-----3--3-------3---------|--2-3-----3--3-------3---------|
B||------0------3-----3---3-----3-|------0------3-----3---3-----3-|
G||--------0----0---0---------0---|--------0----0---0---------0---|
D||--2----------------------0-----|--2----------------------0-----|
A||-------------3-----------------|-------------3-----------------|
E||-------------------------------|-------------------------------|


                                                                   
--2-3-----3--3-------3---------|--0-2-----3-2---0-2-------3-2-----|
------0------3-----3---3-----3-|------3-------3-----3---3-----3---|
--------0----0---0---------0---|--------2-------------2---------2-|
--2----------------------0-----|--0-------------0-----------------|
-------------3-----------------|----------------------------------|
-------------------------------|----------------------------------|



Acoustic II Intro and Verse
                                                               
E||-------0-x-0-0---0--0-0--0---|-------0-x-0-0---0--0-0--0---|
B||-------0-x-0-1---1--1-1--1-0-|-------0-x-0-1---1--1-1--1-0-|
G||-------0-x-0-0---0--0-0--0-0-|-------0-x-0-0---0--0-0--0-0-|
D||--2--2-2-x-2-2---2--2-2--2-0-|--2--2-2-x-2-2---2--2-2--2-0-|
A||--2--2-------3--------3--3---|--2--2-------3--------3--3---|
E||--0--0-----------------------|--0--0-----------------------|


                                                           
-------0-x-0-0---0--0-0--0---|--0---0--0-0--0-0--0-0--0-0-|
-------0-x-0-1---1--1-1--1-0-|--3---3--3-3--3-3--3-3--3-3-|
-------0-x-0-0---0--0-0--0-0-|--2---2--2-2--2-2--2-2--2-2-|
--2--2-2-x-2-2---2--2-2--2-0-|--0---0--0-0--0-0--0-0--0-0-|
--2--2-------3--------3--3---|----------------------------|
--0--0-----------------------|----------------------------|




Chorus (Acoustic I and II)
                                                                  
--0-0-0-0---0-0---0-0-2-2-2-2-3-|--0-0-0-0---0-0---0-0-2-2-2-2-3-|
--1-1-1-1---1-0---0-0-3-3-3-3-0-|--1-1-1-1---1-0---0-0-3-3-3-3-0-|
--0-0-0-0-x-0-0---0-0-2-2-2-2-0-|--0-0-0-0-x-0-0---0-0-2-2-2-2-0-|
--2-2-2-2-x-2-2---2-2-0-0-0-0-0-|--2-2-2-2-x-2-2---2-2-0-0-0-0-0-|
--3-3-3-3-x-3-2---2-2---------2-|--3-3-3-3-x-3-2---2-2---------2-|
--------------0---0-0---------3-|--------------0---0-0---------3-|


                                                                  
--0-0-0-0---0-0---0-0-2-2-2-2-3-|--0-0-0-0---0-0---0-0-2-2-2-2-3-|
--1-1-1-1---1-0---0-0-3-3-3-3-0-|--1-1-1-1---1-0---0-0-3-3-3-3-0-|
--0-0-0-0-x-0-0---0-0-2-2-2-2-0-|--0-0-0-0-x-0-0---0-0-2-2-2-2-0-|
--2-2-2-2-x-2-2---2-2-0-0-0-0-0-|--2-2-2-2-x-2-2---2-2-0-0-0-0-0-|
--3-3-3-3-x-3-2---2-2---------2-|--3-3-3-3-x-3-2---2-2---------2-|
--------------0---0-0---------3-|--------------0---0-0---------3-|


                                                                  
--0-0-0-0---0-0---0-0-2-2-2-2-3-|--0-0-0-0---0-0---0-0-2-2-2-2-3-|
--1-1-1-1---1-0---0-0-3-3-3-3-0-|--1-1-1-1---1-0---0-0-3-3-3-3-0-|
--0-0-0-0-x-0-0---0-0-2-2-2-2-0-|--0-0-0-0-x-0-0---0-0-2-2-2-2-0-|
--2-2-2-2-x-2-2---2-2-0-0-0-0-0-|--2-2-2-2-x-2-2---2-2-0-0-0-0-0-|
--3-3-3-3-x-3-2---2-2---------2-|--3-3-3-3-x-3-2---2-2---------2-|
--------------0---0-0---------3-|--------------0---0-0---------3-|


                                                           
--0-0-0-0---0-0---0-0-2-2-2-2-3-|--0-0-0-0---0-0----------|
--1-1-1-1---1-0---0-0-3-3-3-3-0-|--1-1-1-1---1-0----------|
--0-0-0-0-x-0-0---0-0-2-2-2-2-0-|--0-0-0-0-x-0-0----------|
--2-2-2-2-x-2-2---2-2-0-0-0-0-0-|--2-2-2-2-x-2-2----------|
--3-3-3-3-x-3-2---2-2---------2-|--3-3-3-3-x-3-2----------|
--------------0---0-0---------3-|--------------0----------|





Solo (Play Acoustic I and II verse during the solo)


|------------------------------|----------0-----------|
|------------------------------|------0-------0-------|
|------------------------------|----------------------|
|--------0-2-0-5---4---4-5-4/2-|--2-------------------|
|----0-2-----------------------|----------------------|
|--0---------------------------|----------------------|


                                                           
------------------------------|---------------------------|
------------------------------|---------------------------|
------------------------------|------7---5---4/-2-2-4-4-4-|
--------0-2-0-5---4---4-0-4-5-|--7------------------------|
----0-2-----------------------|---------------------------|
--0---------------------------|---------------------------|


                                                         
------------------------------|--------------------0----|
------------------------------|----------------0--------|
------------------------------|-------------------------|
--------0-2-0-5---4---4-5-4/2-|--7---5-5-2-2------------|
----0-2-----------------------|-------------------------|
--0---------------------------|-------------------------|


                                                           
------------------------------|--------------------------||
------------------------------|--------------------------||
------------------------------|------7---5---4/--2-4-4-4-||
--------0-2-0-5---4---4-5-4-5-|--7-----------------------||
----0-2-----------------------|--------------------------||
--0---------------------------|--------------------------||




Acoustic I End (Harmonics)
                                                                     
--12------------------|----------------------|--12------------------|
-------12-------------|----------------------|-------12-------------|
----------------------|--19---12-------------|----------------------|
----------------------|--12------------------|----------------------|
----------------------|----------------------|----------------------|
----------------------|----------------------|----------------------|


                                                                    
---------------------|--12------------------|----------------------|
--7------------------|-------12-------------|----------------------|
------7--------------|----------------------|--19---12-------------|
----------7----------|----------------------|--12------------------|
---------------------|----------------------|----------------------|
---------------------|----------------------|----------------------|


                                                                   
--12------------------|---------------------|--------------------||
-------12-------------|--7------------------|--12----------------||
----------------------|------7--------------|--12----------------||
----------------------|----------7----------|--12----------------||
----------------------|---------------------|--------------------||
----------------------|---------------------|--------------------||




Acoustic II End
                                                            
-------0-x-0-0---0--0-0--0---|-------0-x-0-0---0--0-0--0---|
-------0-x-0-1---1--1-1--1-0-|-------0-x-0-1---1--1-1--1-0-|
-------0-x-0-0---0--0-0--0-0-|-------0-x-0-0---0--0-0--0-0-|
--2--2-2-x-2-2---2--2-2--2-0-|--2--2-2-x-2-2---2--2-2--2-0-|
--2--2-------3--------3--3---|--2--2-------3--------3--3---|
--0--0-----------------------|--0--0-----------------------|


                                                           
-------0-x-0-0---0--0-0--0---|--0---0--0-0--0-0--0-0--0-0-|
-------0-x-0-1---1--1-1--1-0-|--3---3--3-3--3-3--3-3--3-3-|
-------0-x-0-0---0--0-0--0-0-|--2---2--2-2--2-2--2-2--2-2-|
--2--2-2-x-2-2---2--2-2--2-0-|--0---0--0-0--0-0--0-0--0-0-|
--2--2-------3--------3--3---|----------------------------|
--0--0-----------------------|----------------------------|


                                                            
-------0-x-0-0---0--0-0--0---|-------0-x-0-0---0--0-0--0---|
-------0-x-0-1---1--1-1--1-0-|-------0-x-0-1---1--1-1--1-0-|
-------0-x-0-0---0--0-0--0-0-|-------0-x-0-0---0--0-0--0-0-|
--2--2-2-x-2-2---2--2-2--2-0-|--2--2-2-x-2-2---2--2-2--2-0-|
--2--2-------3--------3--3---|--2--2-------3--------3--3---|
--0--0-----------------------|--0--0-----------------------|


                                                           
-------0-x-0-0---0--0-0--0---|--0---0--0-0--0-0--0-0--0-0-|
-------0-x-0-1---1--1-1--1-0-|--3---3--3-3--3-3--3-3--3-3-|
-------0-x-0-0---0--0-0--0-0-|--2---2--2-2--2-2--2-2--2-2-|
--2--2-2-x-2-2---2--2-2--2-0-|--0---0--0-0--0-0--0-0--0-0-|
--2--2-------3--------3--3---|----------------------------|
--0--0-----------------------|----------------------------|


                       
-------12------------||
-------12------------||
-------12------------||
--2----14------------||
--2----14------------||
--0----12------------||
Suggest correction What's this?
You can suggest a correction to this tab. Community and Mods will review your correction and vote to approve or reject it.
comments
print report bad tab
5 comments total. Showing first comments.
0 reply
Default19 223 wrote on September 15 2004, 12:00 am

isn't that illegal?

0 reply
Poppz Sickle 13 wrote on January 29 2006, 09:08 pm

Check the solo again. It doesn't sound right when I play it.

0 reply
Rob Busch 155 wrote on February 29 2008, 09:24 pm

Good tab....nice job

I want to post or [tab]
guest
You may want to rate the tab now too:
select rating
Please do not post tabs as comments. Select "correction" instead!