Oops, an error
Loading. Please wait.

Burrito Bass Tab

version 1
version 1

Whole song

Interactive

874 views 1 this week
no commentswrite comment
1 2 3 4 5
3 more votes to show rating
add to favorites
launch autoscroll
font size
0
reset
guitar tuner
Autoscroll
slow
fast
+/-
esc
set tempo
stop
Help us to improve Ultimate-Guitar.com Take our survey!
×
Author
Difficulty
Tuning
novice
D A D G B E
Burrito
--------

song-  Burrito
band-  Seether
album- Karma And Effect
year-  2005


Drop Db (Db Ab Db Gb)


Intro

|------------------------|---------------------------------|
|------------------------|---------------------------------|
|------------------------|---------------------------------|
|0--0--0-0---0-0--0--0-0-|0-0--0--0-0---0-0--0---6-6-6-6---|

|------------------------|---------------------------------|
|------------------------|---------------------------------|
|------------------------|---------------------------------|
|0--0--0-0---0-0--0--0-0-|0-0--0--0-0---0-0--0--6-5-0--6-5-|

|------------------------|---------------------------------|
|------------------------|---------------------------------|
|------------------------|---------------------------------|
|0--0--0-0---0-0--0--0-0-|0-0--0--0-0---0-0--0---6-6-6-6---|

|------------------------|------------------------------|
|------------------------|------------------------------|
|------------------------|------------------------------|
|0--0--0-0---0-0--0--0-0-|0-0--0--0-0---0-0--0--6-5-0---|


Verse 1

                                /--------5x--------\

|------------------------------|--------------------|
|------------------------------|0-------------------|
|------------------------------|--------------------|
|0---0-0---0-0---0-0-0-0-0-----|----0-0---0-0-------|


Pre-Chorus 1

|---------------------------------|---------------------------------|
|---------------------------------|---------------------------------|
|---------------------------------|---------------------------------|
|8-8-8-8-8-8-8-8-8-8-8-8-8-8-8-8--|0-0-0-0-0-0-0-0-0-0-0-0-0-0-0-0--|

|---------------------------------|
|---------------------------------|
|---------------------------------|
|8-8-8-8-8-8-8-8-8-8-8-8-8-8-8-8--|



Chorus 1

|-------------------|------------------------|
|---------5--4--1---|---------5--4--7-7-7-7--|
|-------------------|------------------------|
|0--0-0-0-----------|0--0-0-0----------------|

|-------------------|----------------|
|---------5--4--1---|----------------|
|-------------------|----------------|
|0--0-0-0-----------|8-8-8-8-8-8-8---|


Verse 2

                                /--------5x--------\

|------------------------------|--------------------|
|------------------------------|0-------------------|
|------------------------------|--------------------|
|0---0-0---0-0---0-0-0-0-0-----|----0-0---0-0-------|


Pre-Chorus 2

|---------------------------------|---------------------------------|
|---------------------------------|---------------------------------|
|---------------------------------|---------------------------------|
|8-8-8-8-8-8-8-8-8-8-8-8-8-8-8-8--|0-0-0-0-0-0-0-0-0-0-0-0-0-0-0-0--|

|---------------------------------|
|---------------------------------|
|---------------------------------|
|8-8-8-8-8-8-8-8-8-8-8-8-8-8-8-8--|



Chorus 2

|-------------------|------------------------|
|---------5--4--1---|---------5--4--7-7-7-7--|
|-------------------|------------------------|
|0--0-0-0-----------|0--0-0-0----------------|

|-------------------|----------------|
|---------5--4--1---|----------------|
|-------------------|----------------|
|0--0-0-0-----------|8-8-8-8-8-8-8---|



Bridge

 /---------6x--------\

|---------------------|---------------|
|---------------------|---------------|
|---------------------|---------------|
|0--0--0-0--0-0--0----|0--0--0-0------|


|------------------------|---------------------------------|
|------------------------|---------------------------------|
|------------------------|---------------------------------|
|0--0--0-0---0-0--0--0-0-|0-0--0--0-0---0-0--0---6-6-6-6---|

|------------------------|---------------------------------|
|------------------------|---------------------------------|
|------------------------|---------------------------------|
|0--0--0-0---0-0--0--0-0-|0-0--0--0-0---0-0--0--6-5-0--6-5-|

|------------------------|---------------------------------|
|------------------------|---------------------------------|
|------------------------|---------------------------------|
|0--0--0-0---0-0--0--0-0-|0-0--0--0-0---0-0--0---6-6-6-6---|

|------------------------|------------------------------|
|------------------------|------------------------------|
|------------------------|------------------------------|
|0--0--0-0---0-0--0--0-0-|0-0--0--0-0---0-0--0--6-5-0---|



Pre-Chorus 3

|---------------------------------|---------------------------------|
|---------------------------------|---------------------------------|
|---------------------------------|---------------------------------|
|8-8-8-8-8-8-8-8-8-8-8-8-8-8-8-8--|0-0-0-0-0-0-0-0-0-0-0-0-0-0-0-0--|

|---------------------------------|
|---------------------------------|
|---------------------------------|
|8-8-8-8-8-8-8-8-8-8-8--8--8--8---|



Chorus 3

|-------------------|------------------------|
|---------5--4--1---|---------5--4--7-7-7-7--|
|-------------------|------------------------|
|0--0-0-0-----------|0--0-0-0----------------|

|-------------------|----------------|
|---------5--4--1---|----------------|
|-------------------|----------------|
|0--0-0-0-----------|8-8-8-8-8-8-8---|

|-------------------|------------------------|
|---------5--4--1---|---------5--4--7-7-7-7--|
|-------------------|------------------------|
|0--0-0-0-----------|0--0-0-0----------------|

|-------------------|----------------|
|---------5--4--1---|----------------|
|-------------------|----------------|
|0--0-0-0-----------|8-8-8-8-8-8-8---|



Outro

 /------7x-------\

|-----------------|------------|
|-----------------|------------|
|-----------------|------------|
|0-0-0-0-0--6p0---|0-----------|



Well there u go every1 ENJOY!!!!!!
Suggest correction
Give kudos to tab author, rate the tab!
1 2 3 4 5
comments
print report bad tab
guest
You may want to rate the tab now too:
select rating
Wanna post a correction for this tab? Suggest correction