Oops, an error
Loading. Please wait.

Burrito Bass Tab

version 2
version 2

Whole song

Interactive

452 views 1 this week
no commentswrite comment
1 2 3 4 5
please rate
add to favorites
launch autoscroll
font size
0
reset
guitar tuner
Autoscroll
slow
fast
+/-
esc
set tempo
stop
Help us to improve Ultimate-Guitar.com Take our survey!
×
Author
Difficulty
intermediate
Seether - Burrito
Album: Karma And Effect

bass tab

by : doky 2007
taquilleros_de_sudamerica_maroyu_el_grupo_tropical_del_momento@hotmail.com

5-stringed bass
G D A E B

   INTRO
G-|-----------------------------|
D-|-----------------------------|
A-|-----------------------------|
E-|------------------------2222-|
B-|-2-2--2-222-2-222-2-222------|
                                                                              

G-|------------------------------|
D-|------------------------------|
A-|------------------------424/5-|
E-|------------------------------|
B-|-2-2--2-222-2-222-2-222-------|
                                                                              

   VERSO
G-|------------------------------------|
D-|------------------------------------|
A-|---------------------------------44-|
E-|-----4-2-----4---2-----22-----22----|
B-|-2-2-----222---2---2-2----222-------|
                                                                              

   PRE-CORO
G-|---------------------------------|
D-|---------------------------------|
A-|---------------------------------|
E-|-5-5-5-5-5-5-5-5-----------------|
B-|-----------------2-2-2-2-2-2-2-2-|
                                                                              

   CORO
G-|------------|------------|------------|----------|
D-|----3/4-3---|----3/4-3-6-|----3/4-3---|----------|
A-|----------4-|------------|----------4-|----------|
E-|------------|------------|------------|-55555555-|
B-|-22---------|-22---------|-22---------|----------|
                                                                              
 
   MIDDLE
G-|----------|
D-|----------|
A-|----------|
E-|----------|
B-|-22-2-222-|
                                                                              

   FIN
G-|----------|
D-|----------|
A-|----------|
E-|------4---|
B-|-2222---2-|

Congratulo demasiado Al Alvaro Alastorezaga de QB 2004 porque se ha tareado
cuando hemos visto el video final que trataba sobre la basura porque
estaba hablando a lo llama oye.

doky2007
                                                                              
Suggest correction
Give kudos to tab author, rate the tab!
1 2 3 4 5
comments
print report bad tab
guest
You may want to rate the tab now too:
select rating
Please do not post tabs as comments. Select "correction" instead!