Oops, an error
Loading. Please wait.

Butterfly With Teeth tab

by Seether
262 views 3 this week
no commentswrite comment
1 2 3 4 5
2 more votes to show rating
add to favorites
×
Save as Personal and add changes to this tab that will be seen only by you. Learn more ›
×
You can save this tab as Personal to edit and correct it or add notes. All changes will be seen only by you. Learn more »
launch autoscroll
font size
0
reset
how to read this tab
guitar tuner
edit
Autoscroll
slow
fast
+/-
esc
set tempo
stop
Author
-------------------------------------------------------------------------------
                      Butterfly With Teeth - Seether
-------------------------------------------------------------------------------

Tabbed by: Chris Esp
E-mail: greekgamer17@yahoo.gr

Tuning: Drop C#  (C#G#C#F#A#D#)  (Tune your guitar to D# standard then drop the top string to C#)


The Main Riff is the following:

D#|-----------------------------------------------------------------|
A#|-----------------------------------------------------------------|
F#|-----------------------------------------------------------------|
C#|---------7------5------5h7p5-------------4------2------2h4p2-----|  
G#|-----5------5------5--------5-5------2------2------2--------2-2--|
C#|--5---5------5------5--------5----2---2------2------2--------2---|


[Intro]

(0:00-0:21): Main riff x2
D#|-----------------------------------------------------------------|
A#|-----------------------------------------------------------------|
F#|-----------------------------------------------------------------|
C#|---------7------5------5h7p5-------------4------2------2h4p2-----|  
G#|-----5------5------5--------5-5------2------2------2--------2-2--|
C#|--5---5------5------5--------5----2---2------2------2--------2---|(x2)


[Verse 1]

(0:22-1:05): Main riff x4
D#|-----------------------------------------------------------------|
A#|-----------------------------------------------------------------|
F#|-----------------------------------------------------------------|
C#|---------7------5------5h7p5-------------4------2------2h4p2-----|  
G#|-----5------5------5--------5-5------2------2------2--------2-2--|
C#|--5---5------5------5--------5----2---2------2------2--------2---|(x4)

Well it feel like I can't go on
Living this lonely life
Or I can't face the day, so long
Nothing to get behind

I'll play with the wind, hold on
Chase it without regard
Too restless to sing those songs
Keep this all in perspective


[Chorus]

(1:06-1:50): Main riff x4
D#|-----------------------------------------------------------------|
A#|-----------------------------------------------------------------|
F#|-----------------------------------------------------------------|
C#|---------7------5------5h7p5-------------4------2------2h4p2-----|  
G#|-----5------5------5--------5-5------2------2------2--------2-2--|
C#|--5---5------5------5--------5----2---2------2------2--------2---|(x4)

So stay strong, for the rest of the world
Stay strong, and watch as it burns
Stay strong, and swallow your pills
Stay strong, with nowhere to turn


[Chorus Ending]

(1:51-2:16): 
D#|----------------------------------------|
A#|----------------------------------------|
F#|--9--12--9--7----9--12--9--7----9--12~--|
C#|--7--12--9--7----7--12--9--7----7--12~--|
G#|--7--10--7--5----7--10--7--5----7--10~--|
C#|--7--10--7--5----7--10--7--5----7--10~--|

Yes I know. Yes I know. Yes I know.


[Verse 2]

(2:21-3:05): Main riff x4
D#|-----------------------------------------------------------------|
A#|-----------------------------------------------------------------|
F#|-----------------------------------------------------------------|
C#|---------7------5------5h7p5-------------4------2------2h4p2-----|  
G#|-----5------5------5--------5-5------2------2------2--------2-2--|
C#|--5---5------5------5--------5----2---2------2------2--------2---|(x4)

Well it feel like I can't go on
Living this lonely life
Or I can't face the day, so long
Nothing to get behind

I'll play with the wind, hold on
Chase it without regard
Too restless to sing those songs
Keep this all in perspective


[Chorus]

(3:06-3:49): Main riff x4
D#|-----------------------------------------------------------------|
A#|-----------------------------------------------------------------|
F#|-----------------------------------------------------------------|
C#|---------7------5------5h7p5-------------4------2------2h4p2-----|  
G#|-----5------5------5--------5-5------2------2------2--------2-2--|
C#|--5---5------5------5--------5----2---2------2------2--------2---|(x4)

So stay strong, for the rest of the world
Stay strong, and watch as it burns
Stay strong, and swallow your pills
Stay strong, with nowhere to turn


[Chorus Ending]

(3:50-4:37): 
D#|----------------------------------------------------------------------|
A#|----------------------------------------------------------------------|
F#|--9--12--9--7----9--12--9--7----9--12--9--7----9--12--9--7----9--12~--|
C#|--7--12--9--7----7--12--9--7----7--12--9--7----7--12--9--7----7--12~--|
G#|--7--10--7--5----7--10--7--5----7--10--7--5----7--10--7--5----7--10~--|
C#|--7--10--7--5----7--10--7--5----7--10--7--5----7--10--7--5----7--10~--|

Yes I know. Yes I know. Yes I know. Yes I know. Yes I know.


[Outro]

(4:42-5:02): 
D#|-----10--7------------------10--7-----------|
A#|---8----8---8-8h10-8-----8-----8-8-8h10-8---|
F#|--7-7--7---7--------7-7/9-9---9---9------9--|
C#|--------------------------------------------| <-This part is played on every Verse and Chorus 
G#|--------------------------------------------|      (2nd Guitar)
C#|--------------------------------------------|

D#|-----10--7------------------10--7~--|
A#|---8----8---8-8h10-8-----8-----8----|
F#|--7-7--7---7--------7-7/9-9---9-----|
C#|------------------------------------|
G#|------------------------------------|
C#|------------------------------------|



PLEASE RATE! 
 

************************************

| h  Hammer-on
| p  Pull-off
| /  Slide up
| ~  Vibrato

************************************
Suggest correction
Creating personal tab
Creating personal tab
You can edit any tab online and save it as your Personal.

You can edit, replace or remove any tab part or add personal notes – all changes will be seen only by you.

Personal tabs can be accessed anytime from any device, even offline.
Learn more »
Give kudos to tab author, rate the tab!
1 2 3 4 5
comments
print report bad tab
guest
You may want to rate the tab now too:
select rating
Wanna post a correction for this tab? Suggest correction