Oops, an error
Loading. Please wait.

Careless Whisper Tab

version 1
version 1

Whole song

Interactive

299,391 views 138 this week
27 commentsread comments
1 2 3 4 5
x 17
add to favorites
launch autoscroll
font size
0
reset
how to read this tab
guitar tuner
Autoscroll
slow
fast
+/-
esc
set tempo
stop
Help us to improve Ultimate-Guitar.com Take our survey!
×
Hey, wassup? Seether just covered a new song, and I HAD to learn how to play it. Before
else has a tab up of the song, I have one here. It's really accurate; The only thing I'm
too sure of are the leads. I'm 99% positive they're right, but the second lead seems
off, but it's close enough.

The rhythm is REALLY easy to figure out. For the outro, just improvise, or play the lead
again until it fades out.

Well, enjoy, and rock on! :)

*UPDATE* 1/28/09- The intro lead was off- It's in the key of F, so all of the B notes 
flat- This makes the lead 100% better. I feel dumb for
 not catching this the first time, but oh well.

*UPDATE* 2/9/09- Just an FYI for bands trying to cover this version,
the chorus fig. is played behind both leads at all times.

*UPDATE* 6/6/09- I finally got around to changing my little addition to the
lead. Sorry for any confusion :)


[Intro/lead 1] (0:01, 2:48, 4:00)

e|-----------------------10b12------10b12-----8b10-------8b10--------------------|
B|----------------------------10--------10--------11--------11-------------------|
G|------------------------------10--------10--------10--------10-----------------|
D|-----------------------------------------------------12------------------------|
A|-----(light pick slide)--------------------------------------------------------|
D|-------------------------------------------------------------------------------|

e|---------------------------------------------------------------------------|
B|---11-10----------------------------------------10-------------------------|
G|---------10--------------------------9-10-12-------------------------------|
D|-------------12\8~---------8--10-12----------------------------------------|
A|------------------------12-------------------------------------------------|
D|---------------------------------------------------------------------------|


[Verse] (0:39, 1:51)

e|---------------------------------------------------------------------------|
B|-3---------3---2-----------------------------------------------------------|
G|-2----7----3---2-----------------------------------------------------------|
D|-0----5----1---0-----------------------------------------------------------|
A|-0----5--------------------------------------------------------------------|
D|-0----5--------------------------------------------------------------------|


[Chorus](1:08, 2:19, 3:02, 3:31, 4:00)

e|---------------------------------------------------------------------------|
B|-3-------------------------------------------------------------------------|
G|-2--7--2--3--2-------------------------------------------------------------|
D|-0--5--2--3--2-------------------------------------------------------------|
A|-0--5--0--1--0-------------------------------------------------------------|
D|-0--5----------------------------------------------------------------------|


[Lead #2/Solo] (1:36)

e|---------------------------------------10--12--13--10----------------------|
B|-----------------------------------10--------------------------------------|
G|-10--9--10--------10--9--10/12-12------------------------------------------|
D|------------8--------------------------------------------------------------|
A|---------------------------------------------------------------------------|
D|---------------------------------------------------------------------------|


**********************************************

| /  slide up
| \  slide down
| h  hammer-on
| p  pull-off
| ~  vibrato
| +  harmonic
| x  Mute note

**********************************************
Suggest correction
comments
print report bad tab
27 comments total. Showing first comments.
-1 reply
White-Trash Wil 102 Jan 31, 2009 02:35 PM

i love there version of this sone and this tab is very accurate, so i give 5*, good job :)

0 reply
Countrybeaners 10 Feb 18, 2009 10:50 PM

props glad some one got it up here quick

0 reply
Azunaii 123 Feb 20, 2009 04:36 PM

Seems quite correct. I adjusted the lead 1 a bit for personal play, some notes on a different position. Like the 12th fret A string I play that as 7th fret D string. I'm suprised Seether did something not in 1/2 step down / Drop D tuning for once ^^

guest
You may want to rate the tab now too:
select rating
Wanna post a correction for this tab? Suggest correction