Oops, an error
Loading. Please wait.

Careless Whisper Tab

version 2
version 2

Whole song

Interactive

40,194 views 1 this week
3 commentsread comments
1 2 3 4 5
worth learning
x 4
add to favorites
launch autoscroll
font size
0
reset
how to read this tab
guitar tuner
Autoscroll
slow
fast
+/-
esc
set tempo
stop
Help us to improve Ultimate-Guitar.com Take our survey!
×
Author
Seether - Careless Whisper(cover) Acoustic
Tuning: Drop D (or Standard)

Incredibly Cover.  

Intro:     2X
e|-----------------------------------------------------------10-|
B|-10b-8----10b-8----9b-7---9b-7--8b-6------------------10-12---|
G|------10-------10------9------9-----8-6-4v--------9-12--------|
D|--------7--------7------6---------------------9-12------------|   
A|--------------------------------------------12----------------|
D|--------------------------------------------------------------|

Verse:   2X
e|----0-----0-|
B|----3-----1-|
G|-5--2--0--0-|
D|-3--0--2--2-|
A|-3--0--2--3-|    
D|-3-----0--0-|

Chorus:   2X
e|---------------------------------------------------------------------------------|
B|---------------------------------------------------------------------------------|
G|-5555-5555-5555-5555-7777-7777-7777-7777-9999-9999-9999-9999-7777-7777-7777-7777-|
D|-5555-5555-5555-5555-7777-7777-7777-7777-9999-9999-9999-9999-7777-7777-7777-7777-|
A|-3333-3333-3333-3333-5555-5555-5555-5555-7777-7777-7777-7777-5555-5555-5555-5555-|
D|-3333-3333-3333-3333-5555-5555-5555-5555-7777-7777-7777-7777-5555-5555-5555-5555-|

Post Chorus:      2X
e|---------------------------------------------------------------------------------|
B|---------------------------------------------------------------------------------|
G|-7777-7777-7777-7777-9999-9999-9999-9999-5555-5555-5555-5555-7777-7777-7777-7777-|
D|-7777-7777-7777-7777-9999-9999-9999-9999-5555-5555-5555-5555-7777-7777-7777-7777-|
A|-5555-5555-5555-5555-7777-7777-7777-7777-3333-3333-3333-3333-5555-5555-5555-5555-|
D|-5555-5555-5555-5555-7777-7777-7777-7777-3333-3333-3333-3333-5555-5555-5555-5555-|

Verse:   2X       
e|----------0-|    
B|----3-----1-|    
G|-5--2--0--0-|    
D|-3--0--2--2-|    
A|-3--0--2--3-|    
D|-3-----0--0-|

Chorus:   2X
e|---------------------------------------------------------------------------------|
B|---------------------------------------------------------------------------------|
G|-5555-5555-5555-5555-7777-7777-7777-7777-9999-9999-9999-9999-7777-7777-7777-77X7-|
D|-5555-5555-5555-5555-7777-7777-7777-7777-9999-9999-9999-9999-7777-7777-7777-77X7-|
A|-3333-3333-3333-3333-5555-5555-5555-5555-7777-7777-7777-7777-5555-5555-5555-55X5-|
D|-3333-3333-3333-3333-5555-5555-5555-5555-7777-7777-7777-7777-5555-5555-5555-55X5-|

Bridge:      7X                End
e|----------------------------| e|------------------|
B|----------------------------| B|------------------|   
G|-7777-7777-9999-12-12-12-12-| G|-9999--9999--9/12-|
D|-7777-7777-9999-12-12-12-12-| D|-9999--9999--9/12-|
A|-5555-5555-7777-10-10-10-10-| A|-7777--7777--7/10-|
D|-5555-5555-7777-10-10-10-10-| D|-7777--7777--7/10-|

Chorus:   2X
e|---------------------------------------------------------------------------------|
B|---------------------------------------------------------------------------------|
G|-5555-5555-5555-5555-7777-7777-7777-7777-9999-9999-9999-9999-7777-7777-7777-77X7-|
D|-5555-5555-5555-5555-7777-7777-7777-7777-9999-9999-9999-9999-7777-7777-7777-77X7-|
A|-3333-3333-3333-3333-5555-5555-5555-5555-7777-7777-7777-7777-5555-5555-5555-55X5-|
D|-3333-3333-3333-3333-5555-5555-5555-5555-7777-7777-7777-7777-5555-5555-5555-55X5-|

Intro:    
e|-----------------------------------------------------------10-|
B|-10b-8----10b-8----9b-7---9b-7--8b-6------------------10-12---|
G|------10-------10------9------9-----8-6-4v--------9-12--------|
D|--------7--------7------6---------------------9-12------------|
A|--------------------------------------------12----------------|
D|--------------------------------------------------------------|

Outro:      3X                                                    End
e|----------------------------------------------------------------------|----|
B|----------------------------------------------------------------------|----|
G|-7777-7777-7777-7777-9999-9999-9999-9999-5555-5555-5555-5555-5-7-9-12-|--5-|
D|-7777-7777-7777-7777-9999-9999-9999-9999-5555-5555-5555-5555-5-7-9-12-|--5-|
A|-5555-5555-5555-5555-7777-7777-7777-7777-3333-3333-3333-3333-3-5-7-10-|--3-|
D|-5555-5555-5555-5555-7777-7777-7777-7777-3333-3333-3333-3333-3-5-7-10-|--3-|

Just The Way I Hear It. Enjoy and Comment Please! Thanks 
Suggest correction
comments
print report bad tab
3 comments total.
0 reply
ObnoxiousFiend 10 wrote on January 4 2010, 08:54 pm

You mean chorus, not course. Right?

0 reply
kingchronic 110 wrote on January 14 2010, 07:14 pm

Yeah Chorus, lol. Sorry for the mistake.

0 reply
vulcan53 10 wrote on May 12 2016, 05:33 am

The intro is remarkably off - the notes are not only wrong, they don't even go with each other within each chord/section...

I didn't [couldn't] get past the intro so I don't have anything else to add (or know if I would have anything else to add).

guest
You may want to rate the tab now too:
select rating
Wanna post a correction for this tab? Suggest correction