Oops, an error
Loading. Please wait.
We have Chord Pro version of Careless Whisper.
It's the closest thing you can get to the original song and it has interactive parts. Check out the tab »
×
by Seether
104,317 views 24 this week
6 commentsread comments
1 2 3 4 5
x 14
add to favorites
launch autoscroll
font size
0
reset
how to read this tab
guitar tuner
backing track
0:00
0:00
Autoscroll
slow
fast
+/-
esc
set tempo
stop
Author
-------------------------------------------------------------------------------
                             Careless Whisper - Seether
-------------------------------------------------------------------------------
Tabbed by: derrickatw
Email: derrick_fields54@yahoo.com

Tuning: Drop D


I watched him play it live. Besides the intro/lead, This is what i saw. Some of 
the stuff on the verse 
may be wrong but it sounds good anyway. 



Intro/main lead:
e|-----------------------10b12------10b12------8b---------8b------------------|
B|----------------------------10--------10--------11--------11----------------|
G|------------------------------10--------10--------10-7-------10-------------|
D|----------------------------------------------------------------------------|
A|-----(Pick Slide)-----------------------------------------------------------|
D|----------------------------------------------------------------------------|

e|----------------------------------------------------------------------------|
B|---11-10-------------------------------------------10-----------------------|
G|---------10--------------------------9-10-9h10h12---------------------------|
D|-------------12\8~---------8--10-12-----------------------------------------|
A|------------------------12--------------------------------------------------|
D|----------------------------------------------------------------------------|



Chords played over lead:

e|----------------------------------------------------------------------------|
B|-3--3-3-3-3-3---------------------------------------------------------------|
G|-2--2-2-2-2-2-----7--7-7-7-7-7---7/9----10--10-10-10-10-10---9--9-9-9-9-9---|
D|-0--0-0-0-0-0-----5--5-5-5-5-5---5/7-----8---8--8--8--8--8---7--7-7-7-7-7---|
A|-0--0-0-0-0-0-----5--5-5-5-5-5---5/7-----8---8--8--8--8--8---7--7-7-7-7-7---| 2X
D|-0--0-0-0-0-0-----5--5-5-5-5-5---5/7-----8---8--8--8--8--8---7--7-7-7-7-7---|




Verse:

e|----------------------------------------------------------------------------|
B|-3--3-3-3-3-3---------------------------------------------------------------|
G|-2--2-2-2-2-2-----7--7-7-7-7-7-7-----10--10-10-10-10-10-10---9--9-9-9-9-9---|
D|-0--0-0-0-0-0-----5--5-5-7-5-5-5------8---8--8-10--8--8--8---7--7-7-7-7-7---|
A|-0--0-0-0-0-0-----5--5-5-5-5-5-5------8---8--8--8--8--8--8---7--7-7-7-7-7---| 2X
D|-0--0-0-0-0-0-----5--5-5-5-5-5-5------8---8--8--8--8--8--8---7--7-7-7-7-7---|


Lead 2: during Verse second time (..as the music dies, ..to the heart and mind)

e|---------------------------------------------------------------------------|
B|---------------------------------------------------------------------------|
G|---------------------------------------------------------------------------|
D|--0-0-3-5-5/7---5-7p5--3p0-------------------------------------------------|
A|---------------------------------------------------------------------------|
D|---------------------------------------------------------------------------|


Chorus:

e|----------------------------------------------------------------------------|
B|-3--3-3-3-3-3---------------------------------------------------------------|
G|-2--2-2-2-2-2-----7--7-7-7-7-7---7/9----10--10-10-10-10-10---9--9-9-9-9-9---|
D|-0--0-0-0-0-0-----5--5-5-5-5-5---5/7-----8---8--8--8--8--8---7--7-7-7-7-7---|
A|-0--0-0-0-0-0-----5--5-5-5-5-5---5/7-----8---8--8--8--8--8---7--7-7-7-7-7---| 2X
D|-0--0-0-0-0-0-----5--5-5-5-5-5---5/7-----8---8--8--8--8--8---7--7-7-7-7-7---|



Lead 3/Solo:

e|---------------------------------------10--12--13--10----------------------|
B|-----------------------------------10--------------------------------------|
G|-10--9--10--------10--9--10/12-12------------------------------------------|
D|------------8--------------------------------------------------------------|
A|---------------------------------------------------------------------------|
D|---------------------------------------------------------------------------|


Chords played over solo:

e|----------------------------------------------------------------------------|
B|-3--3-3-3-3-3---------------------------------------------------------------|
G|-2--2-2-2-2-2-----7--7-7-7-7-7---7/9----10--10-10-10-10-10---9--9-9-9-9-9---|
D|-0--0-0-0-0-0-----5--5-5-5-5-5---5/7-----8---8--8--8--8--8---7--7-7-7-7-7---|
A|-0--0-0-0-0-0-----5--5-5-5-5-5---5/7-----8---8--8--8--8--8---7--7-7-7-7-7---| 
D|-0--0-0-0-0-0-----5--5-5-5-5-5---5/7-----8---8--8--8--8--8---7--7-7-7-7-7---|






| /  slide up
| \  slide down
| h  hammer-on
| p  pull-off
| ~  vibrato
| +  harmonic
| x  Mute note
===============================================================================
Suggest correction
comments
print report bad tab
6 comments total. Showing first comments.
0 reply
ZeroYuy 10 Apr 06, 2009 04:24 PM

You made a small mistake on the chorus that you posted the second time:
You have one of the chords as

Not a huge deal. I can't wait to actually learn it! Thanks for the tab!!

+3 reply
|)EMENTED 25 Apr 27, 2009 04:20 AM

I think he does something like this:
e|--12-10------12--10-------10--8--------10------|
B|--15b--10----15b---10-----13b--11------13b-11--|
G|---------10----------10----------10-7--------10|
D|-----------------------------------------------|
A|-----------------------------------------------|
D|------------------------------------------------------------------|

e|------------------------------------------------------------------|
B|---11-10-------------------------------------------10-------------|
G|---------10--------------------------9-10-9h10h12-----------------|
D|-------------12\8~---------8--10-12-------------------------------|
A|------------------------12----------------------------------------|
D|------------------------------------------------------------------|

0 reply
\m/Metallica 20 May 15, 2009 04:12 PM

Hey great tab, I have loved that song since it debuted and I was hoping someone would tab it accurately, 'cause everyone knows I can't. lol

guest
You may want to rate the tab now too:
select rating
Wanna post a correction for this tab? Suggest correction