Oops, an error
Loading. Please wait.

Careless Whisper Tab

version 4
version 4

Whole song

Interactive

145,800 views 120 this week
2 commentsread comments
1 2 3 4 5
excellent!
x 31
add to favorites
launch autoscroll
font size
0
reset
how to read this tab
guitar tuner
Autoscroll
slow
fast
+/-
esc
set tempo
stop
Help us to improve Ultimate-Guitar.com Take our survey!
×
Tuning
D A D G B E
Careless Whisper Seether remake
Tuning Drop D 


[Intro]

 Guitar 1 Play (2X)
E|--------------------------------------------------------------------------|
B|----3----3----33--------33----33------------------------------------------|
G|----2----2----22--------22----22------------7----7----77--------77--------|
D|----0----0----00--------00----00------------5----5----55--------55--------|
A|----0----0----00--------00----00------------5----5----55--------55--------|
D|----0----0----00--------00----00------------5----5----55--------55--------|

 Guitar 2
E|10b12r10------------10b12r10-----------8b10---------------8b10---------|
B|---------10-----------------10-------------11-----------------11-------|
G|------------10~~--------------10~~------------10--7~-------------10~~--|
D|-----------------------------------------------------------------------|
A|-----------------------------------------------------------------------|
D|-----------------------------------------------------------------------|

 Guitar 1
E|----------------------------------------------------------------------------|
B|----------------------------------------------------------------------------|
G|7---9---10---10----10----10----10----10-------9----9----99----99----9----5~-|
D|5---7----8----8----88----10----88----8--------7----7----77----77----7----3~-|
A|5---7----8----8----88----88----88----8--------7----7----77----77----7----3~-|
D|5---7----8----8----88----88----88----8--------7----7----77----77----7----3~-|

 Guitar 2
E|----------------------------------------------------------------------|
B|----11--10---------------------------------------------------------10-|
G|-----------10-------------------------------------------9--10--12-----|
D|------------------12--8~~~~~~~--------------8--10--12-----------------|
A|-----------------------------------------12---------------------------|
D|----------------------------------------------------------------------|


[Verse] x2

 Guitar 1 Clean
E|---------------------------------------------|
B|-----3--3333--3333--33-----------------------|
G|-----2--2222--2222--22----7--777--7--7---777-|
D|-----0--0000--0000--00----5--555--5--5---555-|
A|-----0--0000--0000--00----5--555--5--5---555-|
D|-----0--0000--0000--00----5--555--5--5---555-|

E|-------------------------------------------|
B|---11--1111--1111--11---10-1010-1010--10---|
G|---10--1010--1010--10----9--9999--9999--99-|
D|---8---8888--1088--88----7--7777--7777--77-|
A|---8---8888--8888--88----7--7777--7777--77-|
D|---8---8888--8888--88----7--7777--7777--77-|

 Guitar 2 Clean  Played first time (1X)
E|-----------------------------------------------|
B|-----------------------------------------------|
G|-----------------------------------------------|
D|---------------------------------10/8--8~~-----|
A|-----------------------------------------------|
D|-----------------------------------------------|

 Guitar 2 Clean   Played second time (1X)
E|----------------------------------------------------------|
B|----------------------------------------------------------|
G|----------------------------------------------------------|
D|------------------0-0-3-5--5-5/7--------------------------|
A|----------------------------------------------------------|
D|----------------------------------------------------------|


[Chorus]

 Guitar 1 Dist. Play (3X)
E|------------------------------------------------------------|
B|----3--3--33----33--33--------------------------------------|
G|----2--2--22----22--22--------7--7--77----77----7-----------|
D|----0--0--00----00--00--------5--5--55----55----5-----------|
A|----0--0--00----00--00--------5--5--55----55----5-----------|
D|----0--0--00----00--00--------5--5--55----55----5-----------|

 Guitar 1
E|------------------------------------------------------------------------|
B|------------------------------------------------------------------------|
G|--9---10-10---10--10----10--10-------9--9--99--99----9--5~--------------|
D|--7---8--8----88--10----88--8--------7--7--77--77----7--3~--------------|
A|--7---8--8----88--88----88--8--------7--7--77--77----7--3~--------------|
D|--7---8--8----88--88----88--8--------7--7--77--77----7--3~--------------|

 Guitar 2 Dist. Played on the third time
E|------------------------------------------------------------------------|
B|------------------------------------------------------------------------|
G|----7~~~~~~~~~~~~9-10-9--10---------------------10-9-10-12--------------|
D|------------------------------------------------------------------------|
A|----5~~~~~~~~~~~~7-8--7--8---------------------/8--7-8--10~-------------|
D|------------------------------------------8~~~~~------------------------|

 Guitar 2
E|-------------------12````13````12````10````------ <--Each note-----| 4X
B|-------------------------------------------------------------------|
G|--------------------------------------------------------12~/14~~---|
D|-------------------------------------------------------------------|
A|--------------------------------------------------------10~/12~~---|
D|-------------------------------------------------------------------|


[Verse] x2

 Guitar 1 Clean
E|---------------------------------------------|
B|-----3--3333--3333--33-----------------------|
G|-----2--2222--2222--22----7--777--7--7---777-|
D|-----0--0000--0000--00----5--555--5--5---555-|
A|-----0--0000--0000--00----5--555--5--5---555-|
D|-----0--0000--0000--00----5--555--5--5---555-|

E|-------------------------------------------|
B|---11--1111--1111--11---10-1010-1010--10---|
G|---10--1010--1010--10----9--9999--9999--99-|
D|---8---8888--1088--88----7--7777--7777--77-|
A|---8---8888--8888--88----7--7777--7777--77-|
D|---8---8888--8888--88----7--7777--7777--77-|

 Guitar 2 Clean  Played first time (1X)
E|-------------------------------------------|
B|-------------------------------------------|
G|-------------------------------------------|
D|-----------------------------10/8--8~~-----|
A|-------------------------------------------|
D|-------------------------------------------|

 Guitar 2 Clean   Played second time (1X)
E|---------------------------------------------|
B|---------------------------------------------|
G|-------------------------------5h7p5/3~------|
D|-----0-0-3-5--5-5/7--------------------------|
A|---------------------------------------------|
D|---------------------------------------------|


 Guitar 1 Play (3X)
E|--------------------------------------------------------------------------|
B|----3----3----33--------33----33------------------------------------------|
G|----2----2----22--------22----22------------7----7----77--------77--------|
D|----0----0----00--------00----00------------5----5----55--------55--------|
A|----0----0----00--------00----00------------5----5----55--------55--------|
D|----0----0----00--------00----00------------5----5----55--------55--------|

 Guitar 1
E|----------------------------------------------------------------------------|
B|----------------------------------------------------------------------------|
G|7---9---10--10---10----10----10----10-------9----9----99----99----9----5~---|
D|5---7----8----8----88----10----88----8--------7----7----77----77----7----3~-|
A|5---7----8----8----88----88----88----8--------7----7----77----77----7----3~-|
D|5---7----8----8----88----88----88----8--------7----7----77----77----7----3~-|


 Guitar 2 Played third time only
E|10b12r10------------10b12r10-----------8b10---------------8b10----------|
B|--------10------------------10-------------11------------------11-------|
G|----------10~~----------------10~~------------10--7~-------------10--7~-|
D|------------------------------------------------------------------------|
A|------------------------------------------------------------------------|
D|------------------------------------------------------------------------|

 Guitar 2
E|---------------------------------------------------------------------|
B|----11--10-------------------------------------------------------10--|
G|-----------10-----------------------------------------9--10--12------|
D|------------------12--8~~~~~~~--------------8--10--12----------------|
A|-----------------------------------------12--------------------------|
D|---------------------------------------------------------------------|


[Bridge]

 Guitar 1&2
E|--------------------------------------------------------------|
B|--------------------------------------------------------------|
G|--------------------------------------------------------------|
D|--3-0-0--0--0-0-0--0---0-5-3-5--5--3-5-3-5--5--3--------------|
A|--3-0-0--0--0-0-0--0---0-5-3-5--5--3-5-3-5--5--3--------------|
D|--3-0-0--0--0-0-0--0---0-5-3-5--5--3-5-3-5--5--3--------------|

 Guitar 1&2
E|--------------------------------------------------------------|
B|--------------------------------------------------------------|
G|--------------------------------------------------------------|
D|--8-7-8--8--7-8-7-8--8--5--7-5-7--7--5-7-5-7--7---------------|
A|--8-7-8--8--7-8-7-8--8--5--7-5-7--7--5-7-5-7--7---------------|
D|--8-7-8--8--7-8-7-8--8--5--7-5-7--7--5-7-5-7--7--3~-----------|

 Guitar 1&2
E|--------------------------------------------------------------|
B|--------------------------------------------------------------|
G|--------------------------------------------------------------|
D|--3-0-0--0--0-0-0--0---0-5-3-5--5--3-5-3-5--5--3--------------|
A|--3-0-0--0--0-0-0--0---0-5-3-5--5--3-5-3-5--5--3--------------|
D|--3-0-0--0--0-0-0--0---0-5-3-5--5--3-5-3-5--5--3--------------|

 Guitar 1&2
E|--------------------------------------------------------------|
B|--------------------------------------------------------------|
G|--------------------------------------------------------------|
D|--8-7-8--8--7-8-7-8--8--5-7777--5-7777------------------------|
A|--8-7-8--8--7-8-7-8--8--5-7777--5-7777------------------------|
D|--8-7-8--8--7-8-7-8--8--5-7777--5-7777-----3b/0---------------|


[Chorus]

 Guitar 1 Dist. Play (2X)
E|------------------------------------------------------------|
B|----3--3--33----33--33--------------------------------------|
G|----2--2--22----22--22--------7--7--77----77----7-----------|
D|----0--0--00----00--00--------5--5--55----55----5-----------|
A|----0--0--00----00--00--------5--5--55----55----5-----------|
D|----0--0--00----00--00--------5--5--55----55----5-----------|

 Guitar 1
E|------------------------------------------------------------------------|
B|------------------------------------------------------------------------|
G|--9---10-10---10--10----10--10-------9--9--99--99----9--5~--------------|
D|--7---8--8----88--10----88--8--------7--7--77--77----7--3~--------------|
A|--7---8--8----88--88----88--8--------7--7--77--77----7--3~--------------|
D|--7---8--8----88--88----88--8--------7--7--77--77----7--3~--------------|

 Guitar 1 Dist. Play (1X)
E|------------------------------------------------------------|
B|----3--3--33----33--33--------------------------------------|
G|----2--2--22----22--22--------7--7--77----77----7-----------|
D|----0--0--00----00--00--------5--5--55----55----5-----------|
A|----0--0--00----00--00--------5--5--55----55----5-----------|
D|----0--0--00----00--00--------5--5--55----55----5-----------|

 Guitar 2
E|10b12r10------------10b12r10-----------8b10---------------8b10------------|
B|--------10------------------10-------------11-----------------11----------|
G|----------10~~----------------10~~------------10--7~-------------10--7~---|
D|--------------------------------------------------------------------------|
A|--------------------------------------------------------------------------|
D|--------------------------------------------------------------------------|

 Guitar 1
E|------------------------------------------------------------------------|
B|------------------------------------------------------------------------|
G|--9----10---10----10----10----10----10----------------------------------|
D|--7-----8----8----88----10----88----8--------5--7777----7--7777---------|
A|--7-----8----8----88----88----88----8--------5--7777----5--7777---------|
D|--7-----8----8----88----88----88----8--------5--7777----5--7777---------|

 Guitar 2
E|-----------------------------------------------------------------------|
B|11-10----------------------------------------------------9-10-12-13b15-|
G|-----10-------------------------------------------9-10-12--------------|
D|-------12--8~~~~~~~-----8----10---12-------8-10-12---------------------|
A|---------------------12-------------8-10-12----------------------------|
D|-----------------------------------------------------------------------|


[Outro]

 Guitar 1 Play (4X)Fades out
E|--------------------------------------------------------------|
B|--------------------------------------------------------------|
G|--------------------------------------------------------------|
D|--3-0-0--0--0-0-0--0---0-5-3-5--5--3-5-3-5--5--3--------------|
A|--3-0-0--0--0-0-0--0---0-5-3-5--5--3-5-3-5--5--3--------------|
D|--3-0-0--0--0-0-0--0---0-5-3-5--5--3-5-3-5--5--3--------------|

 Guitar 2
E|--------------------------------------------------------------|
B|--------------------------------------------------------------|
G|--7~~~~7/9\7--7/9\7----7~~~~7/9\7--7/9\7----7/10~~~~----------|
D|--------------------------------------------------------------|
A|--5~~~~5/7\5--5/7\5----5~~~~5/7\5--5/7\5-----5/8~~~~----------|
D|--------------------------------------------------------------|


 Guitar 1
E|---------------------------------------------------------------|
B|---------------------------------------------------------------|
G|---------------------------------------------------------------|
D|--8-7-8--8--7-8-7-8--8--5--7-5-7--7--5-7-5-7--7----------------|
A|--8-7-8--8--7-8-7-8--8--5--7-5-7--7--5-7-5-7--7----------------|
D|--8-7-8--8--7-8-7-8--8--5--7-5-7--7--5-7-5-7--7--3~------------|

 Guitar 2
E|---------------------------------------------------------|
B|---------------------------------------------------------|
G|--7/9\7--7/9\7----6~~~14~~~12~~~10~~---------------------|
D|---------------------------------------------------------|
A|--5/7\5--5/7\5----4~~~12~~~10~~~-8~~---------------------|
D|---------------------------------------------------------|



************************************

| h  Hammer-on
| p  Pull-off
| r  Release
| b  Bend
| /  Slide up
| \  Slide down
| ~  Vibrato 

************************************
Suggest correction
comments
print report bad tab
2 comments total.
+2 reply
strathead64 10 wrote on August 16 2009, 02:38 pm

Great tab Man!

+2 reply
tboat 302 wrote on April 6 2010, 06:55 pm

good tab wish you could had that little solo thing at the end but good job

guest
You may want to rate the tab now too:
select rating
Wanna post a correction for this tab? Suggest correction