Oops, an error
Loading. Please wait.

Cigarettes Bass Tab

version 1
version 1

Whole song

Interactive

1,976 views 3 this week
1 commentread comment
1 2 3 4 5
1 last vote to show rating
add to favorites
launch autoscroll
font size
0
reset
guitar tuner
Autoscroll
slow
fast
+/-
esc
set tempo
stop
Help us to improve Ultimate-Guitar.com Take our survey!
×
Author
"Cigarettes" - Seether
Album: Disclaimer II Track 14

Intro:
G-----------------| x8
D-----------------|
A-----------------|
D--5--5--52-2-2-2-|

verse1:
G-----------------| x8
D-----------------|
A-----------------|
D--5--5---2-2-2-2-|

Bridge:
G----------------------------------------------------------------------|
D----------------------------------------------------------------------|
A----------------------------------------------------------------------|
D--9--9-9-9-9--7-7---9--9-9-9-9--11-11--9-9-9-9--7-7---9-9-9-9-9-11-11-|

chorus:
G-----------------| x4
D-----------------|
A-----------------|
D--5--5--52-2-2-2-|

verse 2:
same as verse 1 

repeat bridge

repeat chorus

Solo:
G-----------------| x8
D-----------------|
A-----------------|
D--5--5--52-2-2-2-|

G----------------------------------------------------------------------|
D----------------------------------------------------------------------|
A----------------------------------------------------------------------|
D--9--9-9-9-9--7-7---9--9-9-9-9--11-11--9-9-9-9--7-7---9-9-9-9-9-11-11-|

G-----------------| x4
D-----------------|
A-----------------|
D--5--5--52-2-2-2-|

break:
G------------|
D------------| x4
A------------|
D---5----2---|

verse 3:
G------------|
D------------| x4
A------------|
D---5----2---|


D------------------|
A------------------|
D------------------|
G--5-5-5-5-2-2-2-2-|

repeat bridge (x2)

repeat chorus (x8)

outro:
G---------|
D---------|
A---------|
D--5---5--|
Suggest correction
Give kudos to tab author, rate the tab!
1 2 3 4 5
comments
print report bad tab
1 comment total.
0 reply
fayless 10 Aug 26, 2008 09:51 AM

Nice tab! 5*

guest
You may want to rate the tab now too:
select rating
Wanna post a correction for this tab? Suggest correction