Oops, an error
Loading. Please wait.

Country Song Tab

version 6
version 6

Interactive

28,209 views 18 this week
4 commentsread comments
1 2 3 4 5
x 8
add to favorites
launch autoscroll
font size
0
reset
how to read this tab
guitar tuner
backing track
0:00
0:00
×
Best way to learn
"Country Song"
Autoscroll
slow
fast
+/-
esc
set tempo
stop
Difficulty
Tuning
intermediate
D G C F A D
Country Song-Seether
-My first tab... be nice please!
Tuning:One Step Down (D standard)
Chords: song has three basic chords: E, G, A

[Intro] Guitar I plays throughout song

          *bend slightly sour then pull-off to open string
d|----b3--p0----------0--b3--0---------b3-0----------------------------------|
A|----------0----b3-------------------------0----b3--p0----------------------|
F|-------------------------------------------------------b2--p0--------------|
C|---------------------------------------------------------------------------|
G|---------------------------------------------------------------------------|
D|---------------------------------------------------------------------------|

d|----b3--p0----------0--b3--p0------------------------------------------------|
A|----------0----b3-------------b3--p0---3/5-3--3-p0----------0----------------|
F|--------------------------------------------------------2/3------------------|
C|-----------------------------------------------------------------------------|
G|-----------------------------------------------------------------------------|
D|-----------------------------------------------------------------------------|

d|----b3--p0----------0--b3--0---------b3-0------------------------------------|
A|----------0----b3-------------------------0----b3--p0------------------------|
F|-------------------------------------------------------b2--p0----------------|
C|-----------------------------------------------------------------------------|
G|-----------------------------------------------------------------------------|
D|-----------------------------------------------------------------------------|

d|----b3--p0----------0--b3--p0-----------3/5-3--------------------------------|
A|----------0----b3-------------b3--p0------------b3--p0---------0-------------|
F|--------------------------------------------------------2/3------------------|
C|-----------------------------------------------------------------------------|
G|-----------------------------------------------------------------------------|
D|-----------------------------------------------------------------------------|

[Verse]
  Guitar II: Comes in after intro played once
       E chord
d|-------------play on upbeat ----------------------------------------------------|
A|--------------------------------------------------------------------------------|
F|--1--1--1--1--1--1--1--1--1--1--1--1--1--1--1--1--1--1--1--1--1--1--------------|
C|--2--2--2--2--2--2--2--2--2--2--2--2--2--2--2--2--2--2--2--2--2--2--------------|
G|--2--2--2--2--2--2--2--2--2--2--2--2--2--2--2--2--2--2--2--2--2--2--------------|
D|--------------------------------------------------------------------------------|

[Pre-Chorus]
    Guitar II: requires listening to get chord change form verse to chorus, same strum as verse
d|-------------------------------------------------------------*play each chord at the--|
A|---------------------upbeat-----------------------------------end on syllables of ----|
F|--------------------------------------------------------------"blood in my mouth"-----|
C|---5--5--5--5--5--5--5---2--2--2--2--5--5--5--5----------------------77-5-7-----------|
G|---5--5--5--5--5--5--5---2--2--2--2--5--5--5--5----------------------77-5-7-----------|
D|---3--3--5--3--3--3--3---2--2--2--2--3--3--3--3----------------------55-3-5-----------|
  "...you think you've got the"   "best of intentions..."      "I can't escape the taste 
of blood in my mouth"

      Guitar III: enters at end of pre-chorus with heavy distortion
d|----------------------------------------|
A|----------------------------------------|
F|----------------------------------------|
C|----------------------------------------|
G|----------------------------------------|
D|---------------------------------55-3-5-|

d|-----------------------------|
A|-----------------------------|
F|-----0--2--0-----------------|
C|--------------4--2-----------|
G|-----------------------------|
D|-----------------------------|

[Chorus]
     Guitar II and II: *listen for strumming in song, I know mines not correct
         E               G            E             A         E                 G        A
d|-------------------------------------------------------------------------------|
A|----------------------------2-2-----------------2-2----------------------------|
F|---1-1--1--------- 1-1--1---2-2---1-1--1--------2-2------0--2--0---------------|
C|---2-2--2---5-5---2-2--2---2-2---2-2--2---5-5--2-2--------------4--2-----------|
G|---2-2--2---5-5---2-2--2---------2-2--2---5-5----------------------------------|
D|------------3-5----------------------------3-3---------------------------------|

[Solo] sounds right, tabbed by ear so may be off a bit
      Guitar II:
d|------0---------0--12--------------------------------12----15b17b15-----------|
A|----3----3----3--- 15b17------15b17-15b17---12--15-----15---------------------|
F|--4----4----4------12---------------------------------------------------------|
C|------------------*hit this---------------------------------------------------|
G|-------------------note fast a------------------------------------------------|
D|-------------------few times--------------------------------------------------|

d|-----------------------~~~~19b21~~~~~----------|
A|--15b17-15b17---12---15------------------------|
F|-----------------------------------------------|
C|-----------------------------------------------|
G|-----------------------------------------------|
D|-----------------------------------------------|

     Guitar III: plays this during solo
                   *played at bridge also during "...lay down...stay down...."   *
d|-----------------------------------------------------------------------------|
A|-----------------------------------------------------------------------------|
F|-----------------------------------------------------------------------------|
C|--------------~5~-----5-------------------~5~------5--7--7b87----------------|
G|---------5--7----5--7---5------------5--7-----5--7---------------------------|
D|---0--0------------------------0--0------------------------------------------|

d|--------------------------------------------------------------|
A|--------------------------------------------------------------|
F|-----------------------------------------0--2--0--------------|
C|-------------~5------5----7-7--5--7--------------4---2--------|
G|--------5--7----5--7---5--7-7--5--7---------------------------|
D|--0--0--------------------5-5--3--5---------------------------|

After this they do some funky stuff during the bridge and then the chorus once more.

************************************

| p  Pull-off
| b  Bend
| /  Slide up
| ~  Vibrato

************************************
Suggest correction
comments
print report bad tab
4 comments total. Showing first comments.
+1 reply
Erickson11 31 Nov 23, 2011 10:27 AM

The only part that needs to be changed is the part right before the chorus. You have it as
d|-----------------------------|
A|-----------------------------|
F|-----0--2--0-----------------|
C|--------------4--2-----------|
G|-----------------------------|
D|-----------------------------|
It should be
d|-----------------------------|
A|-----------------------------|
F|-----------------------------|
C|-----------------------------|
G|-----------------------------|
D|-----5h6p5/3-0---------------|
Theres a video on youtube of them showing how to play this song and that's how they play it.

0 reply
dolympose 31 Feb 28, 2012 10:15 AM

Hey Erickson11 im not sayin your wrong but i think that 5/6\5 is too low the 020 side sounds more accurate could you give a link to the video???

0 reply
seethslave89 10 Mar 19, 2012 07:39 AM

its 5h6p5/3 0 on the 4th string (C string) but they do play it on the 6th string live.

guest
You may want to rate the tab now too:
select rating
Wanna post a correction for this tab? Suggest correction