Oops, an error
Loading. Please wait.

Disclaimer 2 Bass Tab

4,234 views 3 this week
1 commentread comment
1 2 3 4 5
excellent!
x 3
add to favorites
launch autoscroll
font size
0
reset
guitar tuner
Tab Pro tools
  • play this tab
  • loop segment
  • change instrument
  • show fretboard
  • metronome
×
Best way to learn
"Disclaimer 2"
Autoscroll
slow
fast
+/-
esc
set tempo
stop
Contributor
“Disclaimer II” – Seether
Bassist - Dale Stewart
Released June 14th 2004


Track List 
     1.	Gasoline – Drop D
     2.	69 Tea – Drop D
     3.	Fine Again – Drop D
     4.	Needles – Drop D
     5.	Driven Under – Drop Db
     6.	Pride – Drop D
     7.	Sympathetic - Standard
     8.	Your Bore – Drop D***
     9.	Fade Away – Drop D
    10.	Pig – Drop D
    11.	Fuck It – Drop D
    12.	Broken - Standard
    13.	Sold Me – Drop D
    14.	Cigarettes – Drop D
    15.	Love Her – Drop D
    16.	Take Me Away - No Bass
    17.	Got It Made – Drop D
    18.	Out of My Way - Standard
    19.	Hang On – Drop D
    20.	Broken (featuring Amy Lee) just use 1st broken

All The tabs are mine except "Your Bore", thanks if I borrowed your tab

“Gasoline”

Intro
  (0:05)  
G|-----------------|
D|-----------------|
A|-----------------|
D|-1-1-----1-1-----|

Verse
  (0:11)
G|-----------------------------|
D|--------------------(12x)----|
A|-----------------------------|
D|-1-1-/13---1/13--------------|

 Chorus
  (0:44)
G|--------------------------------|
D|-------------------------(4x)---|
A|-------3/6-6-6------------------|
D|-3--3-3---------6--6-6----------|

Verse (12x)(0:56)
Chorus (4x)(1:28)

Bridge
  (1:39)
G|----------------------------------------|
D|---------------------------------(8x)---|
A|--------7-7-7-6--5-5-5-4-4-4-4----------|
D|-3-3-3----------------------------------|

Verse (4x)(2:01)
Chorus (8x)(2:12)

Outro
  (2:35)
G|------------------------------------|
D|------------------------------------|
A|------------------(3x)----4-4-4-----|
D|-1-1---1-6-4-1-1--------1-----------|

“69 Tea”

Kick in bass when drums start

Verse
|----------------------|
|----------------------|
|-----5-5-5------------|x4
|3-3--------5-5--6-6-6-|

Chorus
|-------------------------------||-------------------------------|
|-------------------------------||-------------------------------|
|7-7-7-7---------------3--3-3-3-||7-7-7-7---------------3/0------|x2
|--------7-7-7-7-5-5-5----------||--------7-7-7-7-5-5-5----------|

Verse2
|------------------------------|
|----------------------5h6p5---|
|-----5-5-5------------------5-|
|3-3--------5-5--6-6-6---------|

Chorus x2

"SAY YOU WILL..."
|---------------------------------|
|---------------------------------|
|3-3-3-3---------2-2-2-2----------|x6
|--------4-4-4-4---------1-1-1-1--|

Guitar Solo
|----------------------||---------------------|
|----------------------||---------------------|
|----5-5-5-------------||-----5-5-5-----------|x2
|3-3--------5-5--6-6--6||3-3--------5-5-5-6---|

Soft Part when Shaun still sings
|-------------------------------|
|-------------------------------|
|7-7-7-7---------------3--3-3-3-|x2
|--------7-7-7-7-5-5-5----------|

Chorus

Silent Part

"SAY YOU WILL..."
|---------------------------------|
|---------------------------------|
|3-3-3-3---------2-2-2-2----------|x8
|--------4-4-4-4---------1-1-1-1--|


“Fine Again”

Verse                          
G|--------------------------------------|
D|--------------------------------------|
A|---------------------------5-5-5-4----| 
D|-4---4--7-7-7-7-2-2-2-----------------|

Chorus                         
G|---------------------------------------|
D|---------------------------------------|
A|------------5-5-5h-7-5-2-2-------------| 
D|-4---4--4-----------------------2-2-2--|

Bridge                      
G|-----------------------------|
D|-12-----12/--9----9/---------|
A|-----------------------------| 
D|-----------------------------|

Intro no bass
Verse x8
Chorus x4
Verse x8
Chorus x4
Bridge x5
Finish song with chorus

“Needles”
Intro Rest

Verse 1 x4
|---------------------------------------------------------------------|
|--------------------------------------------------3-3-3-3------------|
|----------------3--3--3-3-3-3-3h5------------------------------------|
|0--0--0-0-0-0-0-------------------0--0--0-0-0-0-0----------0h2h3-2p0-|

Chorus 1
|--------------------------------------------------|
|--------------------------------------------------|
|--------------------3-3-3-3-3-3-------------------|x4
|0-0-5p3-0-0--5p3-0--------------5-5---------------|

Verse 2 x2
|-----------------------------------------------------------------------|
|--------------------------------------------------3-3-3-3-3------------|
|----------------3--3--3-3-3-3-3h5--------------------------------------|
|0--0--0-0-0-0-0-------------------0--0--0-0-0-0-0------------0h2h3-2p0-|

Pre-chorus x2
|-------------------------------------------------------------------------|
|-------------------------------------------------------------------------|
|-----------------------------------------------------5-5-5-5-5-----------|
|0-0-x-x-0-0-x-x-3-3-3-3-3-5-5-5-5-5--0-0-x-x-0-0-x-x-----------0h2h3-2p0-|

Chorus2
|-----------------------------------------------------|
|-----------------------------------------------------|
|----------------------3-3-3-3-3-3--------------------|x4
|0-00-3p2-00-000-3p2-0--------------5-5-0-------------|

" You're F*cking killing Me"
|-----------------------------------------------------|
|-----------------------------------------------------|
|-----------------------------------------------------|
|1-1-1-1-1-1-0---------------1-1-1-1-1-1-0------------|

|----------------------------|
|----------------------------|
|-----------------------3-1--|
|00--3p2-0-3p2-0-00----------|

|------------------------------------|
|------------------------------------|
|------------------------------------|
|00--3p2-0-3p2-0-00-----1-1-1-1-1-1-0|

|----------------------------|
|----------------------------|
|-----------------------3-1--|
|00--3p2-0-3p2-0-00----------|

Pre-chorus x2
|-------------------------------------------------------------------------|
|-------------------------------------------------------------------------|
|-----------------------------------------------------5-5-5-5-5-----------|
|0-0-x-x-0-0-x-x-3-3-3-3-3-5-5-5-5-5--0-0-x-x-0-0-x-x-----------0h2h3-2p0-|


Chorus3
|-----------------------------------------------------|
|-----------------------------------------------------|
|----------------------3-3-3-3-3-3--------------------|x4
|0-00-3p2-00-000-3p2-0--------------5-5---------------|

|------------------------------|
|------------------------------|
|---------------------3-3-1-1--|x2
|00--3p2-0-3p2-0-00------------|

“Driven Under”

Drop Db

Intro
|-----------|
|-----------|
|-------3-2-|
|-0-1/4-----|

Verse
|------------------------------------------------------|
|------------------------------------------------------|
|---------------------------0-0-0-0-0-0--0-0-2--2-0--3-|
|-0-0-0-0-0-0---0-0-0-0-2-2----------------------------|

Chorus
|-------------------------------------------|
|-------------------------------------------|
|-----------------------0-0-0-0-0-0-2-2-0-3-|
|-1-1-1-1-1-1-1-1-1-1-1---------------------|

|---------------------------------------------|
|---------------------------------------------|
|---------------------------------------------|
|-1-1-1-1-1-1-1-1-1-1-1-0-0-0-0-0-0-0-0-0-0-0-|

Bridge
|-----------------------------------------------------------|
|-----------------------------------------------------------|
|-5-5-5-5-5-5-5-3-3-3-3-3-3-3-3-3-3-3-3-3-3-----------------|
|-------------------------------------------2-2-2-2-0-0-0-0-|

Before last chorus
|--------------------------------|
|--------------------------------|
|---3--------7-7----------3------|
|-0---0--1/4-----4-4—4-0---0-0-0-|

“Pride”

Intro (start at 00:10)
G|-------------|
D|-------------|
A|-------------|
D|-0-1-0-3p0---|

Verse
G|-----------|----------------------------------|
D|-----x4----|-8---8-8-8-8----5---5-5-5-5-5-5---|
A|-----------|----------------------------------|
D|-0-1-0-3p0-|----------------------------------|           

Chorus
G|----------------------------------------------------------|
D|----------------------------------------------------------|
A|--5-5-5-5-5-5------8-8-8-8-8-8------1-1-1-1-1-------------|
D|------------------------------------------------0-1-0-3p0-|

Bridge
G|------------------|
D|------------------|
A|---------8-10-10--|
D|-0-0-0-0----------| 

G|---------------------|
D|---------------------|
A|----5-8-8------8-5-5-|
D|-0---------0---------|
	
“Sympathetic”

STANDARD TUNING

Intro
|----7-------2---------------------|X2
|--7-------4--------5-------5/7-5--|
|5-------2--------5-------5--------|
|---------------3-------3----------|

Verse
|----7-------2---------------------|
|--7-------4---------5------5/7-5--|
|5-------2---------5------5--------|X4
|----------------3------3----------|

Chorus
|---------------------------------------------------------------|
|---------------------------------------------------------------|
|5-5-5-5-5-5-5-5/2-2-2-2-2-3-2-0--------------------------------|X2
|--------------------------------3-3-3-3-3-3-3-3-3-3-3-3-3-3-3-3|

Verse
|----7-------2------5--------------|
|--7-------4------5---------5/7-5--|
|5-------2------3---------5--------|X4
|-----------------------3----------|

Chorus x4

Interlude
|---------------------------------------------------------------|
|---------------------------------------------------------------|
|2-2-2-2-2-2-2-2-----------------5-5-5-5-5-5-5-5----------------|X3
|----------------3-3-3-3-3-3-3-3-----------------5-5-5-5-5-5-5-5|

|---------------------------------|------|-------------------|
|---------------------------------|------|-------------------|
|2-2-2-2-2-2-2-2-----------------5|------|-5-----5--3--2-----|
|----------------3-3-3-3-3-3-3-3--|------|-------------------|

Chorus x6


“Your Bore”

Intro/Verse 1 x5
|-----------------------------------------------------------|
|-----------------------------------------------------------|
|----------------2-2-2-2-2-2-2-2----------------------------|
|0-0-0-0-0-0-0-0-----------------2-2-2-2-2-2-2-2-2-2-2-2----|

Chorus(0:37)
|---------------------------------------------|
|---------------------------------------------|
|-----22-2-2----------------------------------|x4
|0-0-0------2-2-2/444/66----------------------|

verse(1:06) x4

Chorus(1:35) x4

bridge(2:07)
|----------------------------------|
|----------------------------------|
|----------------------------------|x1
|0-2-3-0-2-3-0-2-3-0-2-3-5-5-------|

Bridge Part 2 (2:11)
|--------------------------------------------------------------|
|--------------------------------------------------------------|
|--------------------------------------------------------------|x3
|0-2-3-0-2-3-0-2-3-0-2-3-0-0-5----0-2-3-0-2-3-0-2-3-0-2-3-5-5--|

(2:33)
|-------------------------------------------------------------------|
|-------------------------------------------------------------------|
|-------------------------------------------------------------------|x1
|0-2-3-0-2-3-0-2-3-0-2-3-0-0-5----0-2-3-0-2-3-0-2-3-0-2-3—5-4-2-4-0-|

Chorus(2:41) x8

Outro
|----|
|----|
|----|
|-0--|

“Fade Away”

Intro/Verse
G-----4-5p4--4-----4---5p4---4-2-2-2-2-4-4-4-4-5-5-5-5-7-2-|
D-3-3--3----3--5-5---5-----5-------------------------------|
A----------------------------------------------------------|
D----------------------------------------------------------|

Chorus
G----------------------------------|
D----------------------------------|
A--------------0-000-33-3/5--------|
D-5-555-33-3-3---------------------|

Bridge
G--------------------------------|
D---------0---4h5p4-0------------|
A--------------------------------|
D-2-2-2-2------------------------|

2nd Bridge part
G-------------------------------------|
D-------------------------------------|
A-0-3-3-3-3---0-3-3-3-3---0-3-5-0-----|
D-------------------------------------|

Heavy Verse
G---------------------------------------|
D---------------------------------------|
A-------------------0000-2222-3333-5555-|
D-33333333-55555555---------------------|

“Pig”

Intro (maybe a little palm mute)
G|---------------------------------------|
D|---------------------------------------|
A|---3--3-----3--3-----3--3--3--3---6b---|
D|---------------------------------------|

Intro 2
G|---------------------------|
D|---------------------------|
A|---5-5-5-5-5-5-5-5-5-7-----|
D|---------------------------|

Verse
G|-------------------------------|
D|-------------------------------|
A|---3-3-3-3-3h5-5-5-5-5h7-7-7---|
D|-------------------------------|

Chorus
G|---------------------------------------------------------|
D|---------------------------------------------------------|
A|-3-3-3-3-3-5-5-5-5-7-7-7-7-7-5-3-3-3-3-3-5-5-5-5-1-1-1-1-|
D|---------------------------------------------------------|

“Fuck It”

Verse:
G|-------------------------------------------------|
D|-------------------------------------------------|
A|-----------------------------------------10-12---|
D|-7---9---7-9---7---7---7---9---7-9—--7h9---------|

Chorus:
G|-------------------------------------|
D|-------------------------------------|
A|-------------------------------------|
D|-0-1-1-0-6-5-0-8----0-1-1-0-6-5-0-8--|

Bridge
G|----------------------------------|
D|----------------------------------|
A|---------5---------5--------------|
D|-xxx-0-0—--xxx-0-0----x-0-0-5-4-3-|

End
G|-------------------|---------|
D|-------------------|---------|
A|----------------5~-|---------|
D|-0-0-0-4-0-4-0-----|-4-0-4-0-|

Song Structure:

Verse         x8
Chorus        x8
verse         x4
Chorus        x8
Bridge        x8
Chorus        x8
End           x4

“Broken”

Intro = No Bass [0:00-0:17]

[0:18-0:47] Verse
|---------------------------------------------|
|---------------------------------------------|
|7~----3----7~----3----7~----3----5---5---5---|X2
|---------------------------------------------|

[0:48-1:19] Chorus
|---------------------------------------------|
|---------------------------------------------|
|3---2------3---2------3---2------3-5-0-------|X2
|---------------------------------------------|

[1:20-1:35] Interlude
|--------------------------------------------------------------|
|-------------3-----------------3-----------------3------------|
|7~----3--3-5---5—7~-----3--3-5---5—7~-----3--3-5---3--5--5--5-|
|--------------------------------------------------------------|

[1:36-2:05] Verse 2
|--------------------------------------------------------------|
|-------------3-----------------3-----------------3------------|
|7~----3--3-5---5—7~-----3--3-5---5—7~-----3--3-5---3--5--5--5-|X2
|--------------------------------------------------------------|

[2:05-2:36] Chorus 2
|---------------------------------------------|
|---------------------------------------------|
|3---2------3---2------3---2------3-5-7~---/0-|X2
|---------------------------------------------|

[2:37-3:06] Verse 3
|--------------------------------------------------------------|
|-------------3-----------------3-----------------3------------|
|7~----3--3-5---5—7~-----3--3-5---5—7~-----3--3-5---3--5--5--5-|X2
|--------------------------------------------------------------|

[3:07-3:39] Chorus 3
|---------------------------------------------|
|---------------------------------------------|
|3---2------3---2------3---2------3-5-7~---/0-|X2
|---------------------------------------------|


“Sold Me” (theres a couple fills i missed out on in the verse, sorry)

Intro
G|----------------------------------------------| 
D|----------------------------------------------| 
A|-4-4-x-x-x-4-4-x-x-x-4-4-x-x-x-4-4-x-x-4x-5b--| 
D|----------------------------------------------| 
 
Verse  
G|-----------------------------------------| 
D|-----------------------------------------| 
A|-2h3-2h3--2h3-2h3--2h3-2h3--2h3--2h3--5--| 
D|-----------------------------------------| 
 
Chorus
|-------------------------------------|
|-------------------------------------|
|-5-5-5-5-5-4-4-4-4-7-7-7-7-5-5-5-5-5-|
|-------------------------------------|

Intro
Verse 
Chorus
 
Interlude (2:37)  
G|---------------------------------| 
D|---------------------------------| 
A|--5h3--3p1--5h3--3p1--3-5-4-5----| 
E|---------------------------------|  
 
Chorus


“Cigarettes”

Intro:
G-----------------| x8
D-----------------|
A-----------------|
D--5--5--52-2-2-2-|

verse1:
G-----------------| x8
D-----------------|
A-----------------|
D--5--5---2-2-2-2-|

Bridge:
G---------------------------------------------------------------------|
D---------------------------------------------------------------------|
A---------------------------------------------------------------------|
D-9--9-9-9-9--7-7---9--9-9-9-9--11-11--9-9-9-9--7-7---9-9-9-9-9-11-11-|

chorus:
G-----------------| x4
D-----------------|
A-----------------|
D--5--5--52-2-2-2-|

verse 2:
same as verse 1 

repeat bridge

repeat chorus

Solo:
G-----------------| x8
D-----------------|
A-----------------|
D--5--5--52-2-2-2-|

G---------------------------------------------------------------------|
D---------------------------------------------------------------------|
A---------------------------------------------------------------------|
D-9--9-9-9-9--7-7---9--9-9-9-9--11-11--9-9-9-9--7-7---9-9-9-9-9-11-11-|

G-----------------| x4
D-----------------|
A-----------------|
D--5--5--52-2-2-2-|

break:
G------------|
D------------| x4
A------------|
D---5----2---|

verse 3:
G------------|
D------------| x4
A------------|
D---5----2---|


D------------------|
A------------------|
D------------------|
G--5-5-5-5-2-2-2-2-|

repeat bridge (x2)

repeat chorus (x8)

outro:
G---------|
D---------|
A---------|
D--5---5--|


“Love Her”

Verse 1: (just listen for where to come in)
G--------------|-------------------| x6
D--------------|-------------------|
A--------------|-------------------|
D--0-0-0-4---3-|--3-4-3-0----0-0-0-|

Chorus:  x2
G------------------|------------------|------------------|-----------|
D------------------|------------------|------------------|-----------|
A------------------|------------------|------------------|-----------|
D--5-5-5-3-3---3-3-|--5-5-5-8---8-8-8-|--5-5-5-3-3---3-3-|--5-5-0-5--|

Verse 2:
G---------------|----------------|
D---------------|----------------| x10
A-------------3-|----------------|
D--0-0-0-4------|--3-4-3-0---043-|

Chorus x2

Break:
G---------------|----------------|
D---------------|----------------| x10
A-------------3-|----------------|
D--0-0-0-4------|--3-4-3-0---043-|


Verse x4

Chorus (till the end)*
* be careful of the break the first time round, u skip the 1st bar 
of the chorus

“Take Me Away” NO BASS

“Got It Made”

Verse, Pre-Chorus
G|-----5-----5-----5-----7-5----------------------10p9h10---|
D|-3-3---3-3---3-3---3-3------6-6-8-6-6-8-6-6-8-9---------0-|
A|--------------------------------------------------------------|
D|--------------------------------------------------------------|

Chorus x2
G|-------------------------------------------------------------------|
D|-------------------------------------------------------------------|
A|-5-5-5-5-5-5-5-5-5-2-2-2-2-2-2-2-2-2-5-5-5-5-5-5-5-5-5-3-3-3-3-3-3-|
D|-------------------------------------------------------------------|

G|----------|
D|-----4-5--|
A|-2-3------|
D|----------|

Verse

Bridge x4
G|--------5br-------------------------------|
D|------------------------------------------|
A|-0-0-0-------0-0-0-0-0-3-3-3-3-3-1-1-1-1--|
D|------------------------------------------|

Verse
Chorus

“Out of My Way”

G|---------------------------------|
D|---------------------------------|
A|--3/5-5---5/7-7---7-5-5---5-3-3--|
E|---------------------------------|

G|-----------|
D|-----------|
A|-----------|
E|-0-0-0-0---|


G|-------------------------------------------------------------|
D|-------------------------------------------------------------|
A|-----3/5-5--------5/7-7-------7-5-5------5-3-3---------------|
E|-0-0---------0-0---------0-0---------0-0---------0-0-0-0-----|

G|------------------------------|
D|------------------------------|
A|--0-0-0--3-3-3--5-5-5--3-3-3--|
E|------------------------------|

“Hang On”

Intro/chorus:
G---------------------|---------------------| x2
D---------------------|---------------------|
A--3-3-3-3-11-1-1-11--|------------13----13-|
D---------------------|-1-1-1-1--1-----1----|

Verse:
G------------------|-------------------|
D------------------|-------------------| x4
A--3--3-3--1-1-1-1-|-----------1-1-1-1-|
D------------------|--1--1-1-----------|

chorus: x2

verse: x6

Bridge:
G-------------------|-------------------|
D-------------------|-------------------| x3
A--1--1-1-11-1--1-3-|-------------------|
D-------------------|--1--1-1-11-1--1-1-|

G-------------------|-------|
D-------------------|-------|
A--1--1-1-11-1--1-3-|-------|
D-------------------|---1---|

3rd verse: no bass

chorus: x8






comments
We did not receive enough feedback on this tab! Please rate:
print report bad tab
1 2 3 4 5
1 comment total.
0 reply
Allumenator wrote on August 9 2009, 03:38 pm

Sorry, my rating is wrong. Nice tab.

I want to post or [tab]
guest
You may want to rate the tab now too:
select rating
Please do not post tabs as comments. Select "correction" instead!