Oops, an error
Loading. Please wait.

Diseased Bass Tab

version 1
version 1

Whole song

Interactive

529 views 1 this week
no commentswrite comment
1 2 3 4 5
please rate
add to favorites
launch autoscroll
font size
0
reset
guitar tuner
Tab Pro tools
  • play this tab
  • loop segment
  • change instrument
  • show fretboard
  • metronome
×
Best way to learn
"Diseased"
Autoscroll
slow
fast
+/-
esc
set tempo
stop
Contributor
Difficulty
intermediate
Seether - Diseased
Album: Karma And Effect

bass tab

by : doky 2007
taquilleros_de_sudamerica_maroyu_el_grupo_tropical_del_momento@hotmail.com

5-stringed bass
G D A E B

   VERSO
G-|-----------------------------|
D-|-----------------------------|
A-|--------2-2-22-4-4-44-555555-|
E-|-----------------------------|
B-|-2-2-22----------------------|
                                                                              

   PRE-CORO 1
G-|--------------------*-------|
D-|--------------------*-------|
A-|--------------------*-------|
E-|------0-2----0------*0-2----|
B-|-2-------------2----*-------|
                                                                              

   CORO 1
G-|-------------|---|----------|
D-|-------------|---|----------|
A-|-------------|---|----------|
E-|-------------|---|----------|
B-|-2-2-2-2-2-2-|---|-33-3-3-3-|
       x3         +     x1                                                     

   BREAK
G-|----------------|---|----------------|
D-|----------------|---|----------------|
A-|----------------|---|----------------|
E-|-222222-000/333-|---|-222222-000/555-|
B-|----------------|---|----------------|
                     +                                                         

   PRE-CORO 2
G-|------------------------------|--------------|
D-|------------------------------|--------------|
A-|------------------------------|-2/4-2--------|
E-|------------------------------|-------0-2----|
B-|------------------------------|--------------|
  precoro 1 hasta lineas punt +                                               

   CORO 2
G-|--------------------|
D-|--------------------|
A-|--------------------|
E-|--------022220000---|
B-|-222222----------222|
                                                                              

   MIDDLE
G-|----------------------|
D-|----------------------|
A-|----------------------|
E-|-666666---------------|
B-|--------555555-333333-|

Al Sergio Cespedes le mando salutaciones, es del QB 2004. se fue pues a Cobija creo
y cuando vino a La Paz no lo pude hubicar porque vive pues cerca del puente Tocopilla 
camino a Sorata. pero un dia le voy a ubicar con un alteño.

doky2007
                                                                              
comments
We did not receive enough feedback on this tab! Please rate:
print report bad tab
1 2 3 4 5
I want to post or [tab]
guest
You may want to rate the tab now too:
select rating
Please do not post tabs as comments. Select "correction" instead!