Oops, an error
Loading. Please wait.

Diseased Bass Tab

version 2
version 2

Whole song

Interactive

790 views 1 this week
2 commentsread comments
1 2 3 4 5
x 3
add to favorites
launch autoscroll
font size
0
reset
guitar tuner
Autoscroll
slow
fast
+/-
esc
set tempo
stop
Help us to improve Ultimate-Guitar.com Take our survey!
×
Author
“Diseased” – Seether

Drop D Tuning

Verse
G|-----------------------------------|
D|-----------------------------------|
A|-----------------------------------|
D|-0-0---2-2---1-1---0-0---------x4--|

Break 1
G|----------------------|
D|----------------------|
A|----------------------|
D|-0~--2-4---2-0---2-4--|

Scream Part
G|--------------------|
D|--------------------|
A|--------------------|
D|-00-0-0-0---x8------|

Pre Chorus
G|-------------------------------|
D|-------------------------------|
A|-------------------------------|
D|-4-4-4-4-4-4--2-2-2-5-5-5--x4--|

Break 2
G|-----------------------------|
D|-----------------------------|
A|-----------------------------|
D|-0~---2-4---4-2-0---0-0-4-2--|

Chorus
G|--------------------------------------------------------------------|
D|--------------------------------------------------------------------|
A|----------------------------------3---------------------------------|
D|-3/-5-5-5—-5/-7-7-7---7/8-8-8---5--5--5-5-5-5-5--3-3-3-3-3-----x2---|

Bridge
G|----------------------------------|
D|----------------------------------|
A|----------------------------------|
D|-8-8-8-8-8-8-4-4-4-4-4-4-------x4-|

Break 3
G|----------|
D|----------|
A|----------|
D|-0~--2-4--|

Chorus x4
Scream Part x8
Suggest correction
Give kudos to tab author, rate the tab!
1 2 3 4 5
comments
print report bad tab
2 comments total.
0 reply
alreadygone 131 Jun 28, 2007 07:20 PM

its simply wrong

0 reply
Bassistboy 10 Jul 11, 2007 10:45 PM

Pretty good.

guest
You may want to rate the tab now too:
select rating
Wanna post a correction for this tab? Suggest correction