Oops, an error
Loading. Please wait.

Dont Believe tab

version 2
version 2

Whole song

Interactive

by Seether
1,165 views 1 this week
no commentswrite comment
1 2 3 4 5
x 3
add to favorites
×
Save as Personal and add changes to this tab that will be seen only by you. Learn more ›
×
You can save this tab as Personal to edit and correct it or add notes. All changes will be seen only by you. Learn more »
launch autoscroll
font size
0
reset
how to read this tab
guitar tuner
edit
Autoscroll
slow
fast
+/-
esc
set tempo
stop
Tabber: xXCrAzY72oo3Xx1


Seether
Don't Believe
Finding Beauty In Negative Spaces

Drop C

Intro 1 (clean):
D|--------------------------------------------------------------------------|
A|--------------------------------------------------------------------------|
F|--------------------------------------------------------------------------|
C|---------5/7---7/10---\7----------------5/7---7/10---\7-------------------|
G|--------------------------------------------------------------------------|
C|0-------------------------------0-----------------------------------------|


D|--------------------------------------------------------------------------|
A|--------------------------------------------------------------------------|
F|--------------------------------------------------------------------------|
C|---------5/7---7/10---\7----------------5/7---7/10---10/12----------------|
G|--------------------------------------------------------------------------|
C|0-------------------------------0-----------------------------------------|


Intro 2 (x3) (distortion):
D|------00000-------------------------|
A|------33333-------------------------|
F|------22222---9-9999---\5-5555------|
C|0-0-0-00000---x-xxxx---\x-xxxx------|
G|0-0-0-00000---7-7777---\3-3333------|
C|0-0-0-00000-------------------------|


Intro 3 (distortion):
D|------00000-------------------------|
A|------33333-------------------------|
F|------22222---9---\5---/7-7777------|
C|0-0-0-00000---x---\x---/x-xxxx------|
G|0-0-0-00000---7---\3---/5-5555------|
C|0-0-0-00000-------------------------|


Verse (clean) (reverb or echo):
D|------------------------------------------------|
A|------------------------------------------------|
F|--------2-------------------2-------------------|
C|----2H3---3-2~----------2H3---3-2~--------------|
G|-------------------------------------3----------|
C|0-------------------0---------------------------|


D|------------------------------------------------|
A|-------------------------------------1~---------|
F|--------2-------------------2-------------------|
C|----2H3---3-2~----------2H3---3-2~--------------|
G|------------------------------------------------|
C|0-------------------0---------------------------|


Pre-Chorus (distortion):
D|---------------------------------------|
A|---------------------------------------|
F|---------------------------------------|
C|000--000-0-0-0-0---000--000-0-2H3P2----|
G|000--000-0-0-0-0---000--000-0-------3--|
C|000--000-0-0-0-0---000--000-0----------|
  ***  *** * * *     ***  *** *

D|---------------------------------------|
A|---------------------------------------|
F|---------------------------------[5]---|
C|000--000-0-0-0-0---000--000-0-1--[5]---|
G|000--000-0-0-0-0---000--000-0-1--[5]---|
C|000--000-0-0-0-0---000--000-0-1--------|
  ***  *** * * *     ***  *** *


Chorus (distortion):
D|--------------------------------------------------------|
A|--------------------------------------------------------|
F|--------------------------------------------------------|
C|0-0-00-0000---3-3-33-3333---8-8-88-8888---5-5-55-5555---|
G|0-0-00-0000---3-3-33-3333---8-8-88-8888---5-5-55-5555---|
C|0-0-00-0000---3-3-33-3333---8-8-88-8888---5-5-55-5555---|


D|--------------------------------------------------------------|
A|--------------------------------------------------------------|
F|------------------------------------------------121212121212--|
C|0-0-00-0000---3-3-33-3333---8-8-88-8888/10101010101010101010--|
G|0-0-00-0000---3-3-33-3333---8-8-88-8888/10101010101010101010--|
C|0-0-00-0000---3-3-33-3333---8-8-88-8888/10101010101010101010--|


Chorus (lead) (distortion) (repeat throughout chorus):
D|10----12--|
A|---10-----|
F|----------|
C|----------|
G|----------|
C|----------|


Post-Chorus (distortion):
D|----------------------------------------------|
A|----------------------------------------------|
F|----------------------------------------------|
C|10H1212121212\3-3-3/10-10101010\5------3------|
G|10H1212121212\3-3-3/10-10101010\5--3-5---5----|
C|10H1212121212\3-3-3/10-10101010\5-------------|
                                     * * * *


D|----------------------------------------|
A|----------------------------------------|
F|----------------------------------------|
C|10H1212121212\3-3-3/10-10101010\5-------|
G|10H1212121212\3-3-3/10-10101010\5-------|
C|10H1212121212\3-3-3/10-10101010\5-------|


Verse
                     [5]
Pre-Chorus (don't do [5])
                     [5]
Chorus


Solo x4 (distortion) (delay or reverb, and a weird effect that I don't know):
D|--------------------------------------|
A|------------------------17-13-15------|
F|14-16-14-16/17-16-14-16---------------|
C|----------------------------------0~--|
G|--------------------------------------|
C|--------------------------------------|

                                     [5]
Bridge (same as Pre-Chorus, with the [5], but x2)
                                     [5]


Chorus x2:
The second time around is like this:
D|--------------------------------------------------------|
A|--------------------------------------------------------|
F|--------------------------------------------------------|
C|0-0-00-0000---3-3-33-3333---8-8-88-8888---5-5-5-5-------|
G|0-0-00-0000---3-3-33-3333---8-8-88-8888---5-5-5-5-------|
C|0-0-00-0000---3-3-33-3333---8-8-88-8888---5-5-5-5-------|
                                   note this^^^^^^^


D|--------------------------------------------------------------|
A|--------------------------------------------------------------|
F|------------------------------------------------121212121212--|
C|0-0-00-0000---3-3-33-3333---8-8-88-8888/10101010101010101010--|
G|0-0-00-0000---3-3-33-3333---8-8-88-8888/10101010101010101010--|
C|0-0-00-0000---3-3-33-3333---8-8-88-8888/10101010101010101010--|


Outro 1 (same as Post-Chorus, but x2)

Outro 2 (it is a weird thing that I also don't know)


That's it!
Thanks for using my tab!


Check out my cover of this song at http://www.youtube.com/watch?v=tvXD5PBOp_c


Thanks!

            
            
Suggest correction
Creating personal tab
Creating personal tab
You can edit any tab online and save it as your Personal.

You can edit, replace or remove any tab part or add personal notes – all changes will be seen only by you.

Personal tabs can be accessed anytime from any device, even offline.
Learn more »
Give kudos to tab author, rate the tab!
1 2 3 4 5
comments
print report bad tab
guest
You may want to rate the tab now too:
select rating
Wanna post a correction for this tab? Suggest correction