Oops, an error
Loading. Please wait.
We have an official Driven Under tab made by UG professional guitarists. Check out the tab »
×
by Seether
1,067 views 1 this week
2 commentsread comments
1 2 3 4 5
1 last vote to show rating
add to favorites
×
Save as Personal and add changes to this tab that will be seen only by you. Learn more ›
×
You can save this tab as Personal to edit and correct it or add notes. All changes will be seen only by you. Learn more »
launch autoscroll
font size
0
reset
guitar tuner
edit
Autoscroll
slow
fast
+/-
esc
set tempo
stop
Intro
G[------------------------------------------------ ]
D[-------------------------------------------------]
A[-8-12-15-12--------------------------------------]
D[-------------------------------------------------]

Verse x8
G[------------------------------------------------ ]
D[-------------------------------------------------]
A[-888888-8-8-8-10-12121212121212-1212-15-14-12-15/]
D[-------------------------------------------------]

Chorus x2
G[------------------------------------------------------]
D[------------------------------------------------------]
A[---------------0-00-0000-2320-------------------------]
D[-3-33-33333-33----------------3-33-33333-33-2-22-2222-]

Verse x6

Chorus x2 

Bridge x4
G[-------------------------------------------------]
D[-------------------------------------------------]
A[-555555-5----------333333-3----------------------]
D[----------333333-3----------5555-3333------------]

PreChorus (You only do this before the last chorus)
G[-------------------------------------------------]
D[--10~----14~----10~------------------------------]
A[-8~-8~-12~-12~-8~-8~/----------------------------]
D[-------------------------------------------------]


Chorus x2

End
G[------------------------------------------------ ]
D[-------------------------------------------------]
A[---0~--------------------------------------------]
D[-3~---3~--2~-------------------------------------]

            
            
Suggest correction
Creating personal tab
Creating personal tab
You can edit any tab online and save it as your Personal.

You can edit, replace or remove any tab part or add personal notes – all changes will be seen only by you.

Personal tabs can be accessed anytime from any device, even offline.
Learn more »
Give kudos to tab author, rate the tab!
1 2 3 4 5
comments
print report bad tab
2 comments total.
+1 reply
brmbasstrials 10 Jul 19, 2013 12:34 PM

thank you! this is the right tab!
live is it the same thank you very much!! :p

guest
You may want to rate the tab now too:
select rating
Wanna post a correction for this tab? Suggest correction