Oops, an error
Loading. Please wait.

Fade Away Tab

version 1
version 1

Intro

Whole song

Interactive

7,244 views 1 this week
1 commentread comment
1 2 3 4 5
please rate
add to favorites
launch autoscroll
font size
0
reset
how to read this tab
guitar tuner
Autoscroll
slow
fast
+/-
esc
set tempo
stop
Help us to improve Ultimate-Guitar.com Take our survey!
×
Author
Tabbed by:SANDROK
Email: SANDROK71@YAHOO.COM
THIS IS THE CORRECT WAY TO PLAY THE INTRO.
Tuning: STANDARD

e|-----------------------------------------------------|
B|-----------------------------------------------------|
G|-------4------5--4----4-----------4----5--4-----4----|
D|-3--3----3---------3------5---5-----5--------5-------|
A|-----------------------------------------------------|
E|-1------------------------3--------------------------|


e|-----------------------------------------------------|
B|-----------------------------------------------------|
G|-----------------------------------------------------|
D|---7--7--7-7/9—-9-—9--9/10-10-10-10/12---------------|
A|-----------------------------------------------------|
E|---5---------7--------8-----------8/12---------------|
Suggest correction
Give kudos to tab author, rate the tab!
1 2 3 4 5
comments
print report bad tab
1 comment total.
0 reply
Kurt97 10 wrote on August 29 2007, 09:21 am

incorrect. he plays it on E and D strings. just play your version man! too high notes? dont you hear?

guest
You may want to rate the tab now too:
select rating
Wanna post a correction for this tab? Suggest correction