Oops, an error
Loading. Please wait.

Fake It Tab

version 2
version 2

Acoustic

Interactive

18,993 views 48 this week
no commentswrite comment
1 2 3 4 5
excellent!
x 6
add to favorites
launch autoscroll
font size
0
reset
how to read this tab
guitar tuner
Autoscroll
slow
fast
+/-
esc
set tempo
stop
Help us to improve Ultimate-Guitar.com Take our survey!
×
Author
Difficulty
Tuning
novice
C G C F A D
Song: Fake It (Acoustic)
Band: Seether
Tuning: Drop C (C, G, C, F, A, d)
Tabbed by: J. Griff (artificial_inside@yahoo.com)
Comments: I remember hearing this version awhile back. They played this on
the 92.3 K-Rock station. It's slower than the original song, but this one, 
I think, has a little bit more meaning and emotion to it. It is very easy to
play and sing along to. I hope you enjoy the tab. 

If there's any corrections, let me know. Please rate and comment.


If you want to see the video, here's the link:

http://www.youtube.com/watch?v=ZYBG5ou87mI&NR=1


=================
Guitar Legend:
b - Bend
=================


Intro:

d|--0--0-0--0-0-0--0--0-0---0-0-0----0--0-0--0-0-0--0--0-0---0-0-0--|
A|--3--3-3--3-3-3--1--1-3b--1-1-1----3--3-3--3-3-3--1--1-3b--1-1-1--|
F|--2--2-2--2-2-2--0--0-0---0-0-0----2--2-2--2-2-2--0--0-0---0-0-0--|
C|--0--0-0--0-0-0--2--2-2---2-2-2----0--0-0--0-0-0--2--2-2---2-2-2--|
G|--0--0-0--0-0-0--3--3-3---3-3-3----0--0-0--0-0-0--3--3-3---3-3-3--|
C|--0--0-0--0-0-0--------------------0--0-0--0-0-0------------------|


Verse:

d|--0--0-0--0-0-0--0--0-0--0-0-0----0--0-0--0-0-0--0--0-0--0-0-0--|
A|--3--3-3--3-3-3--1--1-3--3-1-1----3--3-3--3-3-3--1--1-3--3-1-1--|
F|--2--2-2--2-2-2--0--0-0--0-0-0----2--2-2--2-2-2--0--0-0--0-0-0--|
C|--0--0-0--0-0-0--2--2-2--2-2-2----0--0-0--0-0-0--2--2-2--2-2-2--|
G|--0--0-0--0-0-0--3--3-3--3-3-3----0--0-0--0-0-0--3--3-3--3-3-3--|
C|--0--0-0--0-0-0-------------------0--0-0--0-0-0-----------------|

d|--0--0-0--0-0-0--0--0-0--0-0-0----0--0-0--0-0-0--0--0-0--0-0-0--|
A|--3--3-3--3-3-3--1--1-3--3-1-1----3--3-3--3-3-3--1--1-3--3-1-1--|
F|--2--2-2--2-2-2--0--0-0--0-0-0----2--2-2--2-2-2--0--0-0--0-0-0--|
C|--0--0-0--0-0-0--2--2-2--2-2-2----0--0-0--0-0-0--2--2-2--2-2-2--|
G|--0--0-0--0-0-0--3--3-3--3-3-3----0--0-0--0-0-0--3--3-3--3-3-3--|
C|--0--0-0--0-0-0-------------------0--0-0--0-0-0-----------------|

d|--0--0-0--0-0-0--0--0-0--0-0-0----0--0-0--0-0-0--0--0-0--0-0-0--|
A|--3--3-3--3-3-3--1--1-3--3-1-1----3--3-3--3-3-3--1--1-3--3-1-1--|
F|--2--2-2--2-2-2--0--0-0--0-0-0----2--2-2--2-2-2--0--0-0--0-0-0--|
C|--0--0-0--0-0-0--2--2-2--2-2-2----0--0-0--0-0-0--2--2-2--2-2-2--|
G|--0--0-0--0-0-0--3--3-3--3-3-3----0--0-0--0-0-0--3--3-3--3-3-3--|
C|--0--0-0--0-0-0-------------------0--0-0--0-0-0-----------------|

d|--0--0-0--0-0-0--0--0-0--0-0-0----0--0-0--0-0-0--0--0-0--0-0-0--|
A|--3--3-3--3-3-3--1--1-3--3-1-1----3--3-3--3-3-3--1--1-3--3-1-1--|
F|--2--2-2--2-2-2--0--0-0--0-0-0----2--2-2--2-2-2--0--0-0--0-0-0--|
C|--0--0-0--0-0-0--2--2-2--2-2-2----0--0-0--0-0-0--2--2-2--2-2-2--|
G|--0--0-0--0-0-0--3--3-3--3-3-3----0--0-0--0-0-0--3--3-3--3-3-3--|
C|--0--0-0--0-0-0-------------------0--0-0--0-0-0-----------------|


Chorus:

d|--0--0-0--0-0-0-------------------0--0-0--0-0-0-----------------|
A|--3--3-3--3-3-3--5--5-5--5-5-5----3--3-3--3-3-3--5--5-5--5-5-5--|
F|--2--2-2--2-2-2--3--3-5--5-3-3----2--2-2--2-2-2--3--3-5--5-3-3--|
C|--0--0-0--0-0-0--3--3-3--3-3-3----0--0-0--0-0-0--3--3-3--3-3-3--|
G|--0--0-0--0-0-0--3--3-3--3-3-3----0--0-0--0-0-0--3--3-3--3-3-3--|
C|--0--0-0--0-0-0--3--3-3--3-3-3----0--0-0--0-0-0--3--3-3--3-3-3--|

d|--0--0-0--0-0-0-------------------0--0-0--0-0-0-----------------|
A|--3--3-3--3-3-3--5--5-5--5-5-5----3--3-3--3-3-3--5--5-5--5-5-5--|
F|--2--2-2--2-2-2--3--3-5--5-3-3----2--2-2--2-2-2--3--3-5--5-3-3--|
C|--0--0-0--0-0-0--3--3-3--3-3-3----0--0-0--0-0-0--3--3-3--3-3-3--|
G|--0--0-0--0-0-0--3--3-3--3-3-3----0--0-0--0-0-0--3--3-3--3-3-3--|
C|--0--0-0--0-0-0--3--3-3--3-3-3----0--0-0--0-0-0--3--3-3--3-3-3--|


Intro:

d|--0--0-0--0-0-0--0--0-0---0-0-0----0--0-0--0-0-0--0--0-0---0-0-0--|
A|--3--3-3--3-3-3--1--1-3b--1-1-1----3--3-3--3-3-3--1--1-3b--1-1-1--|
F|--2--2-2--2-2-2--0--0-0---0-0-0----2--2-2--2-2-2--0--0-0---0-0-0--|
C|--0--0-0--0-0-0--2--2-2---2-2-2----0--0-0--0-0-0--2--2-2---2-2-2--|
G|--0--0-0--0-0-0--3--3-3---3-3-3----0--0-0--0-0-0--3--3-3---3-3-3--|
C|--0--0-0--0-0-0--------------------0--0-0--0-0-0------------------|


Verse:

d|--0--0-0--0-0-0--0--0-0--0-0-0----0--0-0--0-0-0--0--0-0--0-0-0--|
A|--3--3-3--3-3-3--1--1-3--3-1-1----3--3-3--3-3-3--1--1-3--3-1-1--|
F|--2--2-2--2-2-2--0--0-0--0-0-0----2--2-2--2-2-2--0--0-0--0-0-0--|
C|--0--0-0--0-0-0--2--2-2--2-2-2----0--0-0--0-0-0--2--2-2--2-2-2--|
G|--0--0-0--0-0-0--3--3-3--3-3-3----0--0-0--0-0-0--3--3-3--3-3-3--|
C|--0--0-0--0-0-0-------------------0--0-0--0-0-0-----------------|

d|--0--0-0--0-0-0--0--0-0--0-0-0----0--0-0--0-0-0--0--0-0--0-0-0--|
A|--3--3-3--3-3-3--1--1-3--3-1-1----3--3-3--3-3-3--1--1-3--3-1-1--|
F|--2--2-2--2-2-2--0--0-0--0-0-0----2--2-2--2-2-2--0--0-0--0-0-0--|
C|--0--0-0--0-0-0--2--2-2--2-2-2----0--0-0--0-0-0--2--2-2--2-2-2--|
G|--0--0-0--0-0-0--3--3-3--3-3-3----0--0-0--0-0-0--3--3-3--3-3-3--|
C|--0--0-0--0-0-0-------------------0--0-0--0-0-0-----------------|

d|--0--0-0--0-0-0--0--0-0--0-0-0----0--0-0--0-0-0--0--0-0--0-0-0--|
A|--3--3-3--3-3-3--1--1-3--3-1-1----3--3-3--3-3-3--1--1-3--3-1-1--|
F|--2--2-2--2-2-2--0--0-0--0-0-0----2--2-2--2-2-2--0--0-0--0-0-0--|
C|--0--0-0--0-0-0--2--2-2--2-2-2----0--0-0--0-0-0--2--2-2--2-2-2--|
G|--0--0-0--0-0-0--3--3-3--3-3-3----0--0-0--0-0-0--3--3-3--3-3-3--|
C|--0--0-0--0-0-0-------------------0--0-0--0-0-0-----------------|

d|--0--0-0--0-0-0--0--0-0--0-0-0----0--0-0--0-0-0--0--0-0--0-0-0--|
A|--3--3-3--3-3-3--1--1-3--3-1-1----3--3-3--3-3-3--1--1-3--3-1-1--|
F|--2--2-2--2-2-2--0--0-0--0-0-0----2--2-2--2-2-2--0--0-0--0-0-0--|
C|--0--0-0--0-0-0--2--2-2--2-2-2----0--0-0--0-0-0--2--2-2--2-2-2--|
G|--0--0-0--0-0-0--3--3-3--3-3-3----0--0-0--0-0-0--3--3-3--3-3-3--|
C|--0--0-0--0-0-0-------------------0--0-0--0-0-0-----------------|


Chorus:

d|--0--0-0--0-0-0-------------------0--0-0--0-0-0-----------------|
A|--3--3-3--3-3-3--5--5-5--5-5-5----3--3-3--3-3-3--5--5-5--5-5-5--|
F|--2--2-2--2-2-2--3--3-5--5-3-3----2--2-2--2-2-2--3--3-5--5-3-3--|
C|--0--0-0--0-0-0--3--3-3--3-3-3----0--0-0--0-0-0--3--3-3--3-3-3--|
G|--0--0-0--0-0-0--3--3-3--3-3-3----0--0-0--0-0-0--3--3-3--3-3-3--|
C|--0--0-0--0-0-0--3--3-3--3-3-3----0--0-0--0-0-0--3--3-3--3-3-3--|

d|--0--0-0--0-0-0-------------------0--0-0--0-0-0-----------------|
A|--3--3-3--3-3-3--5--5-5--5-5-5----3--3-3--3-3-3--5--5-5--5-5-5--|
F|--2--2-2--2-2-2--3--3-5--5-3-3----2--2-2--2-2-2--3--3-5--5-3-3--|
C|--0--0-0--0-0-0--3--3-3--3-3-3----0--0-0--0-0-0--3--3-3--3-3-3--|
G|--0--0-0--0-0-0--3--3-3--3-3-3----0--0-0--0-0-0--3--3-3--3-3-3--|
C|--0--0-0--0-0-0--3--3-3--3-3-3----0--0-0--0-0-0--3--3-3--3-3-3--|


Breakdown:

d|--0--0-0--0-0-0-------------------0--0-0--0-0-0-----------------|
A|--3--3-3--3-3-3--5--5-5--5-5-5----3--3-3--3-3-3--5--5-5--5-5-5--|
F|--2--2-2--2-2-2--3--3-5--5-3-3----2--2-2--2-2-2--3--3-5--5-3-3--|
C|--0--0-0--0-0-0--3--3-3--3-3-3----0--0-0--0-0-0--3--3-3--3-3-3--|
G|--0--0-0--0-0-0--3--3-3--3-3-3----0--0-0--0-0-0--3--3-3--3-3-3--|
C|--0--0-0--0-0-0--3--3-3--3-3-3----0--0-0--0-0-0--3--3-3--3-3-3--|

d|--0--0-0--0-0-0-------------------0--0-0--0-0-0-----------------|
A|--3--3-3--3-3-3--5--5-5--5-5-5----3--3-3--3-3-3--5--5-5--5-5-5--|
F|--2--2-2--2-2-2--3--3-5--5-3-3----2--2-2--2-2-2--3--3-5--5-3-3--|
C|--0--0-0--0-0-0--3--3-3--3-3-3----0--0-0--0-0-0--3--3-3--3-3-3--|
G|--0--0-0--0-0-0--3--3-3--3-3-3----0--0-0--0-0-0--3--3-3--3-3-3--|
C|--0--0-0--0-0-0--3--3-3--3-3-3----0--0-0--0-0-0--3--3-3--3-3-3--|

d|--0--0-0--0-0-0-------------------0--0-0--0-0-0-----------------|
A|--3--3-3--3-3-3--5--5-5--5-5-5----3--3-3--3-3-3--5--5-5--5-5-5--|
F|--2--2-2--2-2-2--3--3-5--5-3-3----2--2-2--2-2-2--3--3-5--5-3-3--|
C|--0--0-0--0-0-0--3--3-3--3-3-3----0--0-0--0-0-0--3--3-3--3-3-3--|
G|--0--0-0--0-0-0--3--3-3--3-3-3----0--0-0--0-0-0--3--3-3--3-3-3--|
C|--0--0-0--0-0-0--3--3-3--3-3-3----0--0-0--0-0-0--3--3-3--3-3-3--|


Intro:

d|--0--0-0--0-0-0--0--0-0---0-0-0----0--0-0--0-0-0--0--0-0---0-0-0--|
A|--3--3-3--3-3-3--1--1-3b--1-1-1----3--3-3--3-3-3--1--1-3b--1-1-1--|
F|--2--2-2--2-2-2--0--0-0---0-0-0----2--2-2--2-2-2--0--0-0---0-0-0--|
C|--0--0-0--0-0-0--2--2-2---2-2-2----0--0-0--0-0-0--2--2-2---2-2-2--|
G|--0--0-0--0-0-0--3--3-3---3-3-3----0--0-0--0-0-0--3--3-3---3-3-3--|
C|--0--0-0--0-0-0--------------------0--0-0--0-0-0------------------|


Verse:

d|--0--0-0--0-0-0--0--0-0--0-0-0----0--0-0--0-0-0--0--0-0--0-0-0--|
A|--3--3-3--3-3-3--1--1-3--3-1-1----3--3-3--3-3-3--1--1-3--3-1-1--|
F|--2--2-2--2-2-2--0--0-0--0-0-0----2--2-2--2-2-2--0--0-0--0-0-0--|
C|--0--0-0--0-0-0--2--2-2--2-2-2----0--0-0--0-0-0--2--2-2--2-2-2--|
G|--0--0-0--0-0-0--3--3-3--3-3-3----0--0-0--0-0-0--3--3-3--3-3-3--|
C|--0--0-0--0-0-0-------------------0--0-0--0-0-0-----------------|

d|--0--0-0--0-0-0--0--0-0--0-0-0----0--0-0--0-0-0--0--0-0--0-0-0--|
A|--3--3-3--3-3-3--1--1-3--3-1-1----3--3-3--3-3-3--1--1-3--3-1-1--|
F|--2--2-2--2-2-2--0--0-0--0-0-0----2--2-2--2-2-2--0--0-0--0-0-0--|
C|--0--0-0--0-0-0--2--2-2--2-2-2----0--0-0--0-0-0--2--2-2--2-2-2--|
G|--0--0-0--0-0-0--3--3-3--3-3-3----0--0-0--0-0-0--3--3-3--3-3-3--|
C|--0--0-0--0-0-0-------------------0--0-0--0-0-0-----------------|

d|--0--0-0--0-0-0--0--0-0--0-0-0----0--0-0--0-0-0--0--0-0--0-0-0--|
A|--3--3-3--3-3-3--1--1-3--3-1-1----3--3-3--3-3-3--1--1-3--3-1-1--|
F|--2--2-2--2-2-2--0--0-0--0-0-0----2--2-2--2-2-2--0--0-0--0-0-0--|
C|--0--0-0--0-0-0--2--2-2--2-2-2----0--0-0--0-0-0--2--2-2--2-2-2--|
G|--0--0-0--0-0-0--3--3-3--3-3-3----0--0-0--0-0-0--3--3-3--3-3-3--|
C|--0--0-0--0-0-0-------------------0--0-0--0-0-0-----------------|

d|--0--0-0--0-0-0--0--0-0--0-0-0----0--0-0--0-0-0--0--0-0--0-0-0--|
A|--3--3-3--3-3-3--1--1-3--3-1-1----3--3-3--3-3-3--1--1-3--3-1-1--|
F|--2--2-2--2-2-2--0--0-0--0-0-0----2--2-2--2-2-2--0--0-0--0-0-0--|
C|--0--0-0--0-0-0--2--2-2--2-2-2----0--0-0--0-0-0--2--2-2--2-2-2--|
G|--0--0-0--0-0-0--3--3-3--3-3-3----0--0-0--0-0-0--3--3-3--3-3-3--|
C|--0--0-0--0-0-0-------------------0--0-0--0-0-0-----------------|


Chorus:

d|--0--0-0--0-0-0-------------------0--0-0--0-0-0-----------------|
A|--3--3-3--3-3-3--5--5-5--5-5-5----3--3-3--3-3-3--5--5-5--5-5-5--|
F|--2--2-2--2-2-2--3--3-5--5-3-3----2--2-2--2-2-2--3--3-5--5-3-3--|
C|--0--0-0--0-0-0--3--3-3--3-3-3----0--0-0--0-0-0--3--3-3--3-3-3--|
G|--0--0-0--0-0-0--3--3-3--3-3-3----0--0-0--0-0-0--3--3-3--3-3-3--|
C|--0--0-0--0-0-0--3--3-3--3-3-3----0--0-0--0-0-0--3--3-3--3-3-3--|

d|--0--0-0--0-0-0-------------------0--0-0--0-0-0-----------------|
A|--3--3-3--3-3-3--5--5-5--5-5-5----3--3-3--3-3-3--5--5-5--5-5-5--|
F|--2--2-2--2-2-2--3--3-5--5-3-3----2--2-2--2-2-2--3--3-5--5-3-3--|
C|--0--0-0--0-0-0--3--3-3--3-3-3----0--0-0--0-0-0--3--3-3--3-3-3--|
G|--0--0-0--0-0-0--3--3-3--3-3-3----0--0-0--0-0-0--3--3-3--3-3-3--|
C|--0--0-0--0-0-0--3--3-3--3-3-3----0--0-0--0-0-0--3--3-3--3-3-3--|

d|--0--0-0--0-0-0-------------------0--0-0--0-0-0-----------------|
A|--3--3-3--3-3-3--5--5-5--5-5-5----3--3-3--3-3-3--5--5-5--5-5-5--|
F|--2--2-2--2-2-2--3--3-5--5-3-3----2--2-2--2-2-2--3--3-5--5-3-3--|
C|--0--0-0--0-0-0--3--3-3--3-3-3----0--0-0--0-0-0--3--3-3--3-3-3--|
G|--0--0-0--0-0-0--3--3-3--3-3-3----0--0-0--0-0-0--3--3-3--3-3-3--|
C|--0--0-0--0-0-0--3--3-3--3-3-3----0--0-0--0-0-0--3--3-3--3-3-3--|

d|--0--0-0--0-0-0-------------------0--0-0--0-0-0-----------------|
A|--3--3-3--3-3-3--5--5-5--5-5-5----3--3-3--3-3-3--5--5-5--5-5-5--|
F|--2--2-2--2-2-2--3--3-5--5-3-3----2--2-2--2-2-2--3--3-5--5-3-3--|
C|--0--0-0--0-0-0--3--3-3--3-3-3----0--0-0--0-0-0--3--3-3--3-3-3--|
G|--0--0-0--0-0-0--3--3-3--3-3-3----0--0-0--0-0-0--3--3-3--3-3-3--|
C|--0--0-0--0-0-0--3--3-3--3-3-3----0--0-0--0-0-0--3--3-3--3-3-3--|


Outro:

d|--0--0-0--0-0-0--0--0-0---0-0-0----0--0-0--0-0-0--0--0-0---0-0-0--0--|
A|--3--3-3--3-3-3--1--1-3b--1-1-1----3--3-3--3-3-3--1--1-3b--1-1-1--1--|
F|--2--2-2--2-2-2--0--0-0---0-0-0----2--2-2--2-2-2--0--0-0---0-0-0--0--|
C|--0--0-0--0-0-0--2--2-2---2-2-2----0--0-0--0-0-0--2--2-2---2-2-2--2--|
G|--0--0-0--0-0-0--3--3-3---3-3-3----0--0-0--0-0-0--3--3-3---3-3-3--3--|
C|--0--0-0--0-0-0--------------------0--0-0--0-0-0---------------------|
Suggest correction
What's this?
You can suggest a correction to this tab. Community and Mods will review your correction and vote to approve or reject it.
comments
print report bad tab
guest
You may want to rate the tab now too:
select rating
Please do not post tabs as comments. Select "correction" instead!