Oops, an error
Loading. Please wait.

Fake It Bass Tab

version 1
version 1

Whole song

Interactive

15,102 views 6 this week
14 commentsread comments
1 2 3 4 5
x 5
add to favorites
launch autoscroll
font size
0
reset
guitar tuner
Autoscroll
slow
fast
+/-
esc
set tempo
stop
Help us to improve Ultimate-Guitar.com Take our survey!
×
Artist: Seether
Song: Fake It
Tabbed by: Bassmaster2010
Tuning: Standard (EADG)

I'm not 100% positive on this, but it is my interpretation of the song. This is a very
song to learn and it is a little repetitive, and this is also my first tab so
dont flame for this if it's wrong.

Bass starts by itself at very beginning and plays pretty much the same thing
through the whole song.

All verses                                                 (Repeat)
GI-------------------------------I--------------------------------|
DI-----------------------3-3-----I----------------------3-3-------|
AI--3-3--3-6-6--6------------6-6-I-3-3--3-6-6--6------------6-6---|
EI----------------6-6--6---------I---------------6-6--6-----------|


Chorus
GI-------------------------------| (X3)
DI-------------------------------|
AI--3-3--3-3-3--3-6-6--6-6-6--6--|
EI-------------------------------|


Then this to return to the verse.
GI---------------------------------|
DI---------------3-3---------------|
AI-3-3--3-3-3--3-----5-5-3-3-------|
EI---------------------------6-6---|


I know it looks too simple but it's how I assume the song to go. Any comments or 
send me a message or e-mail at wesleyvaughn@musfiber.com
Suggest correction
comments
print report bad tab
14 comments total. Showing first comments.
0 reply
BreAkdOwn396 83 Dec 13, 2007 06:19 PM

sounds good, but does this sound
right?
GI-------------------------------I--------------------------------|
DI-----------------------3-3-----I---------
-------------3-3-------|
AI--3-3--3-6-6--6------------5-5-I-3-3--3-6-6--6------------5-5---|
EI----------------6-6--6-
--------I---------------6-6--6-----------|

0 reply
surealbasist 10 Dec 15, 2007 04:09 PM

good tab the verse sounds right but the chorus sounds off and you are missing the bridge and solo but other then that
sounds good man

-2 reply
Mike84 10 Dec 16, 2007 02:58 AM

all wrong the song is in drop c tuning... the song is


Seether - Fake It - Bass
Tabs



Intro
|---5-5x5--------------3-3x3-----7----------------------------
|------------3-3x3-------------------
-----------5----------------------------------

chorus
|---------------------------------3---------------------------
-------------------------------------
|------00---000x0-3-3x0-3--------------------------------------------------------
---------
A


Verse
woaaahh yur such a f***ing
hypocrit
|------5-5-5----8-8-8----3-3-3----------------------------------------------
|-------------------------------
----------5-3-----------------------------------


Bridge
|-----------------------------------------|
|------------
-----------------------------|
|-----------------------------------------|
|----3--3--3--3/7--7--7--7--7--0--0--0--0-|



Vers/ Guitar Solo


|------5-5-5----8-8-8----3-3-3----------------------------------------------
|-------------------------------------
----5-3-----------------------------------

After Solo
bit
|---------------------------------------|
|---------------------------------------|
|----5--5--5--3--3--3--------
-----------|
|----------------------5--5--5--3--3--3-|

Verse
woaaahh yur such a f***ing
hypocrit
|------5-5-5----8-8-8----3-3-3----------------------------------------------
|-------------------------------
----------5-3-----------------------------------

guest
You may want to rate the tab now too:
select rating
Wanna post a correction for this tab? Suggest correction